American Hi Fi - Flavor Of The Weak Chords & Tabs

 

Flavor Of The Weak Chords & Tabs

American Hi Fi Chords & Tabs

Version: 8 Type: Tab 0 ratings
1 star 2 stars 3 stars 4 stars 5 stars
comments

Flavor Of The Weak Tab

   
Song: Flavor of the Weak
Artist: American Hi-Fi
Album: American Hi-Fi
Tabbed by King Of The Eskimos, 6/6/01
Drop-D Tuning

Intro:
e--------------------------------------------------|
B--------------------------------------------------|
G--------------------------------------------------|
D?-5-5--5-5?-5-5--1-1-0-1-1-1-3--------------------|
A?-5-5--5-5?-5-5--1-1-0-1-1-1-3--------------------|
D?-5-5--5-5?-5-5--1-1-0-1-1-1-3--------------------|
x4

Verse:
e--------------------------------------------------|
B--------------------------------------------------|
G--3-3333333----------------------88888888---------|
D--3-3333333--33333333--55555555--88888888---------|
A--1-1111111--33333333--55555555--66666666---------|
D-------------33333333--55555555-------------------|
     PM___________________________________
x2

Pre-Chorus:
e---------------------------------------------------|
B---------------------------------------------------|
G--------------3-x--3-3------------5-5-5-5----------|
D--5-x--5-5-x--3-x--3-3--3-x--3-3--5-5-5-5--1-1-3-3-|
A--5-x--5-5-x--1----1-1--3-x--3-3--3-3-3-3--1-1-3-3-|
D--5----5-5--------------3----3-3-----------1-1-3-3-|
"and he's got posters on the wall..."

Riff 1: (Play over Pre-Chorus)
e--------------------------------------------------|
B--------------------------------------------------|
G--5--5--5-5--55--/8-7-3--3-3--5--5-5--5555--------|
D--------------------------------------------------|
A--3--3--3-3--33--/6-5-1--1-1--3--3-3--3333--------|
D--------------------------------------------------|
[ Tab from: http://www.guitartabs.cc/tabs/a/american_hi_fi/flavor_of_the_weak_tab_ver_8.html ]
Chorus:
e--------------------------------------------------|
B--------------------------------------------------|
G--3-3-----------------5555555--88888888-----------|
D--3-3-------3-3-------5555555--88888888-----------|
A--1-1-------3-3-------3333333--66666666-----------|
D------------3-3-----------------------------------|
x2
"her boyfriend, he don't know..."

e--------------------------------------------------|
B--------------------------------------------------|
G--33333333------------5555555--88888888-----------|
D--33333333--33333333--5555555--88888888-----------|
A--11111111--33333333--3333333--66666666-----------|
D------------33333333------------------------------|
"she's just the flavor of the weak"

e---------------------------------------------------|
B---------------------------------------------------|
G--33333333-----------------------------------------|
D--33333333--33333333--5-5--5-5--5-5--1-1-0-1-1-1-3-|
A--11111111--33333333--5-5--5-5--5-5--1-1-0-1-1-1-3-|
D------------33333333--5-5--5-5--5-5--1-1-0-1-1-1-3-|

Riff 2: (Play over chorus)
e--------------------------------------------------|
B--------------------------------------------------|
G----7b8-5---7b8-5----------7b8-5---7b8-5-8b-------|
D--8-------3-------5------8-------3----------------|
A--------------------------------------------------|
D--------------------------------------------------|

All the parts are here except for solos, and small
lead interjections made by the guitarist. Just improv
these and have some fun. This tab was made from memory,
so send any comments/suggestions and or large sums of
money to kingoftheeskimos@silverchair.org
Thanx for using my tab, and good luck!
Comments