American Hi Fi - Flavor Of The Weak Chords & Tabs

 

Flavor Of The Weak Chords & Tabs

American Hi Fi Chords & Tabs

Version: 2 Type: Bass Tab 0 ratings
1 star 2 stars 3 stars 4 stars 5 stars
comments

Flavor Of The Weak Bass Tab

Drop D tuning. if you got any quistions e-mail me at sosa101@aol.com 

Guitar plays twice then: Intro (2x)
G:-----------------------------------------------------------------
D:-----------------------------------------------------------------
A:-----------------------------------------------------------------
D:--3-5-5--5-5--5-5-1-1-0-1-1--------------------------------------

Verse 1 (2x)
G:-----------------------------------------------------------------
D:-----------------------------------------------------------------
A:-1-1-1-1-1-1-1-1---------------------------------6-6-6-6-6-6-6-6-
D:-----------------3-3-3-3-3-3-3-3-5-5-5-5-5-5-5-5-----------------

Prechorus
G:-----------------------------------------------------------------
D:-----------------------------------------------------------------
A:---------1--1-1--------3-3-3-3-3-3-3-3-3-3-3-3--6-5--------------
D:--5--5-5--------3--3-3-------------------------------------------

Prechorus (Cont.)
G:-----------------------------------------------------------------
D:-----------------------------------------------------------------
A:-1-1-1-1-1-1-1-1--3-3-3-3-3-3-3-3--------------------------------
D:-----------------------------------------------------------------
[ Tab from: http://www.guitartabs.cc/tabs/a/american_hi_fi/flavor_of_the_weak_btab_ver_2.html ]
Chorus (2x)
G:-----------------------------------------------------------------
D:-----------------------------------------------------------------
A:-1-1-------3-3-3-3-3-3-3-3-6-6-6-6-6-6-6-6-----------------------
D:------3-3--------------------------------------------------------

Post-chorus (2x)
G:-----------------------------------------------------------------
D:-----------------------------------------------------------------
A:-1-1-1-1-1-1-1-1-----------------3-3-3-3-3-3-3-3-6-6-6-6-6-6-6-6-
D:-----------------3-3-3-3-3-3-3-3---------------------------------

Repeat Intro

Repeat Verse 2x

Repeat Prechorus

Repeat Chorus 2x

Repeat Post-chorus 2x

Repeat Intro 4x

Then play:
G:----------------------------------------------------------------
D:----------------------------------------------------------------
A:-1-1--1-1--1-1----------3-3--3-3--6-6-6-6-6-6-6-6---------------
D:---------------3-3--3-3-----------------------------------------

G:----------------------------------------------------------------
D:----------------------------------------------------------------
A:-1-1--1-1--1-1----------3-3--3-3--6-6---------------------------
D:---------------3-3--3-3---------------1-(Let Last note ring)----

Then a variation of the chorus:
G:----------------------------------------------------------------
D:----------------------------------------------------------------
A:-1-1-------3-3---6-6--------------------------------------------
D:------3-3-------------------------------------------------------

Repeat Post-Chorus 5x

Comments