American Hi-fi - Art Of Losing Chords & Tabs

 

Art Of Losing Chords & Tabs

American Hi-fi Chords & Tabs

Version: 1 Type: Tab 0 ratings
1 star 2 stars 3 stars 4 stars 5 stars
comments

Art Of Losing Tab

Intro/Verse
e|-----------------------------------------------------------------------------|
B|-----------------------------------------------------------------------------|
G|-7-7/9-9---------------------------------------------------------------------|
D|-7-7/9-9---------------------------------------------------------------------|
A|-5-5/7-7---------------------------------------------------------------------|
E|-----------------------------------------------------------------------------|
Guitar During Verse
e|---------------------------------------------------------------------------|
B|---------------------------------------------------------------------------|
G|-9-9--7-7-5-5--9-9--------7--7--7--5--5--7-7-------------------------------|
D|-x-x--x-x-x-x--x-x--x2----7--7--7--5--5--7-7-------------------------------|
A|-7-7--5-5-3-3--7-7--------5--5--7--3--3--5-5-------------------------------|
E|---------------------------------------------------------------------------|
Chorus
e|---------------------------------------------------------------------------|
B|---------------------------------------------------------------------------|
G|-----5-5-----7-7-------5-7-------------------------------------------------|
D|-2-2-5-5-5-5-7-7--x3-5-5-7-------------------------------------------------|
A|-2-2-3-3-5-5-5-5-----5-3-5-------------------------------------------------|
E|-0-0-----3-3---------3-----------------------------------------------------|
[ Tab from: http://www.guitartabs.cc/tabs/a/american_hi_fi/art_of_losing_tab.html ]
Bridge
e|---------------------------------------------------------------------------|
B|---------------------------------------------------------------------------|
G|-5--7-5--7--5~~------------------------------------------------------------|
D|-5--7-5--7--5~~------------------------------------------------------------|
A|-3--5-3--3--3~~------------------------------------------------------------|
E|---------------------------------------------------------------------------|

Intro

Chorus

solo:

e|---------------------------------------------------------------------------|
b|---------------------------------------------------------------------------|
g|------12----12--------12------------12------------14----------14-------14--|
d|---12----12------12------------12-------------14----------14---------14----|
a|-10--10----10------------10--------------12-----------12---------12--------|
e|---------------------------------------------------------------------------|


"Were the kids in america"
e|---------------------------------------------------------------------------|
B|---------------------------------------------------------------------------|
G|----7-5--7-----------------------------------------------------------------|
D|-5--7-5--7-----------------------------------------------------------------|
A|-3--5-3--3-----------------------------------------------------------------|
E|-3-------------------------------------------------------------------------|
Comments