American Hi Fi - Another Perfect Day Chords & Tabs

 

Another Perfect Day Chords & Tabs

American Hi Fi Chords & Tabs

Version: 3 Type: Tab 0 ratings
1 star 2 stars 3 stars 4 stars 5 stars
comments

Another Perfect Day Tab

   
Song: Another Perfect Day
Band: American Hi-Fi
Album: American Hi-Fi
Tabbed By: Joe Swindells (joeswindells@hotmail.com)
Tuning: 1/2 step down (sounds a semitone lower than written here)
Notes: When you're playing this on your own, you don't have to tune down.
Listen to CD for struming patterns

h = hammer-on
p = pull-off
b = bend
/ = slide up
\ = slide down
5 = power chord


Intro/Chorus
   C     C/B   Am    G     Dsus2 F
e|-0-----0-----0-----3-----5-----1-----------------------------------------|
B|-1-----1-----1-----3-----5-----1-----------------------------------------|
G|-0-----0-----2-----4-----7-----2-----------------------------------------|
D|-2-----0-----2-----5-----7-----3-----------------------------------------|
A|-3-----2-----0-----5-----5-----3-----------------------------------------|
E|-------------------3-----------1-----------------------------------------|

Verse
   C     Am    F     G
e|-0-----0-----1-----3-----------------------------------------------------|
B|-1-----1-----1-----3-----------------------------------------------------|
G|-0-----2-----2-----0-----------------------------------------------------|
D|-2-----2-----3-----0-----------------------------------------------------|
A|-3-----0-----3-----2-----------------------------------------------------|
E|-------------1-----3-----------------------------------------------------|

Bridge 
   Am    G#    Am    F
e|-5-----4-----5-----1-----------------------------------------------------|
B|-5-----4-----5-----1-----------------------------------------------------|
G|-5-----5-----5-----2-----------------------------------------------------|
D|-7-----6-----7-----3-----------------------------------------------------|
A|-7-----6-----7-----3-----------------------------------------------------|
E|-5-----4-----5-----1-----------------------------------------------------|
[ Tab from: http://www.guitartabs.cc/tabs/a/american_hi_fi/another_perfect_day_tab_ver_3.html ]
Solo 1
e|-12--------15--12h13p12h13p12------------12--------15--12h13p12h13p12----|
B|----13------------------------13-15b17------13---------------------------|
G|-------12--------------------------------------12------------------------|
D|-------------------------------------------------------------------------|
A|-------------------------------------------------------------------------|
E|-------------------------------------------------------------------------|

e|-------------------------------------------------------------------------|
B|--13-15--13--12-13-15----------------------------------------------------|
G|----------------------13-------------------------------------------------|
D|-------------------------------------------------------------------------|
A|-------------------------------------------------------------------------|
E|-------------------------------------------------------------------------|

Solo 2
e|-12--------15--12h13p12h13p12--------------------------------------------|
B|----13------------------------13-15b17b(15)-13---------------------------|
G|-------12---------------------------------------(x2)---------------------|
D|-------------------------------------------------------------------------|
A|-------------------------------------------------------------------------|
E|-------------------------------------------------------------------------|


Lyrics

I'm holding on
Waiting for your call
It's simple but I can't explain this,			(Verse 1)
I'm sinking down
I feel like I could die
I'm falling off I don't know why

I still believe it when you say
It's another perfect day, another perfect day.		(Chorus)
I still believe it when you say
It's another perfect day, another perfect day.

So I might try
To leave it all behind
I know tomorrows not so bright now,			(Verse 2)
I'll say goodbye 
Cause nothing good can last
You wear and fade you're nowhere fast.

Today
I don't know how						(Bridge 1)
To keep it all inside
But I guess I'll let it slide

(Chorus)

Today
I don't know why						(Bridge 2)
I thought that it was real
But I guess it's no big deal

(Chorus)

I don't know how
I don't know how						(Outro)
I don't know how
To let it slide
Comments