American Hi Fi - Another Perfect Day Chords & Tabs

 

Another Perfect Day Chords & Tabs

American Hi Fi Chords & Tabs

Version: 2 Type: Tab 0 ratings
1 star 2 stars 3 stars 4 stars 5 stars
comments

Another Perfect Day Tab

   
Artist: American Hi FI 
Song: Another Perfect Day
Transcribed by: Matt Bradley
Email:ambb@bellsouth.net
Tuning: Normal 

Intro/chorus
G|-4-3-----6-9--|
D|-4-4-6-4-6-9--|
A|-2-1-6-4-4-7--|
E|-----4-2------|

Verse
G|-4---9---|
D|-4-6-9-4-|
A|-2-6-7-4-|
E|---4---2-|

"Today" part
G|-------4|
D|-6-5-6-4|
A|-6-5-6-2|
E|-4-3-4--|

First solo
E|--------------------------------------------------------|
B|-16--------19---16-17-16-17-16--------------------------|
G|----16-------------------------16-18------18^-20--------|
D|-------16-----------------------------------------------|

E|--------------------------------------------------------|
B|-16--------19---16-17-16-17-16--------------------------|
G|----16--------------------------16-18--16-15-16-18------|
D|-------16------------------------------------------17---|

Second solo
E|--------------------------------------------------------|
B|-16--------19---16-17-16-17-16--------------------------|
G|----16-------------------------16-18------18^-20--16----|
D|-------16-----------------------------------------------|
[ Tab from: http://www.guitartabs.cc/tabs/a/american_hi_fi/another_perfect_day_tab_ver_2.html ]
E|--------------------------------------------------------|
B|-16--------18---16-17-16-17-16--------------------------|
G|----16-------------------------16-18------18^-20--16----|
D|-------16-----------------------------------------------|

Lyrics

Verse 1
I'm holding on
waiting for your call
it's simple but I can't explain this
I'm sinking down
I feel like I could die
I'm falling off I don't know why

Chorus
I still believe it when you say
it's another perfect day, another perfect day
I still believe it when you say 
it's another perfect day, another perfect day

Verse 2
So I might try 
to leave it all behind 
I know tomorrow's not so bright now
I'll say good bye 
cause nothing good can last 
you wear and fade you're nowhere fast 
today
I don't know how
to keep it all inside 
but I guess I'll let it slide
 
Chorus
I still believe it when you say 
it's another perfect day, another perfect day
I still believe it when you say 
it's another perfect day, another perfect day

Verse 3
Today 
I don't know why
I thought that it was real
but I guess it's no big deal

Chorus
I still believe it when you say 
it's another perfect day, another perfect day
I still believe it when you say 
it's another perfect day, another perfect day 

Outro verse
I don't know how
I don't know how
I don't know how
to let it slide

That's it email me with corrections.  Listen to the cd for strum patterns.
Comments