American Head Charge - Violent Reaction Chords & Tabs

 

Violent Reaction Chords & Tabs

American Head Charge Chords & Tabs

Version: 3 Type: Tab 0 ratings
1 star 2 stars 3 stars 4 stars 5 stars
comments

Violent Reaction Tab

   
Title: A Violent Reaction
Album: The War of Art
Submitted by: mike downes

Tuning: Db,Ab,Db,Gb,Bb,eb

<> harmonics
p  pull off
h  hammer on
/  slide
x  mute

Intro/Prechorus:   The second guitar is just muting when the other does harmonics.

------------------------------------------------------------------------------|
------------------------------------------------------------------------------|
-----------------------<9>-<5>-<7>--------------------------<9>-<5>-<7>-------|
----3-6p5-6p5-6p5-6p5------------------0h5h6-5h6-5h6-5h6----------------------|
----3-6p5-6p5-6p5-6p5------------------0h5h6-5h6-5h6-5h6----------------------|
----3-6p5-6p5-6p5-6p5------------------0h5h6-5h6-5h6-5h6----------------------|


Last harmonics...........then
---------------------|--------------------------------------------------------|
---------------------|--------------------------------------------------------|
-<5>--<7>--<5>--<9>--|--------------------------------------------------------|
---------------------|--222-/-5-----------------------------------------------|
---------------------|--222-/-5-----------------------------------------------|
---------------------|--222-/-5-----------------------------------------------|


Verse
[ Tab from: http://www.guitartabs.cc/tabs/a/american_head_charge/violent_reaction_tab_ver_3.html ]
------------------------------------------------------------------------------|
------------------------------------------------------------------------------|
------------------------------------------------------------------------------|
-------------------xxxx------------------------xxxx---------------------------|
-------------------xxxx------------------------xxxx---------------------------|
-3-6p5-6p5-6p5-6p5-xxxx------0h5h6-5h6-5h6-5h6-xxxx---------------------------|


A Violent Reaction..........
------------------------------------------------------------------------------|
------------------------------------------------------------------------------|
------------------------------------------------------------------------------|
---2---xxx---2---xxx--2---xxx--2/6-6h7-6h7-6h7--------------------------------|
---2---xxx---2---xxx--2---xxx--2/6-6h7-6h7-6h7--------------------------------|
---2---xxx---2---xxx--2---xxx--2/6-6h7-6h7-6h7--------------------------------|


Chorus                       Last Chorus

----------------------------|-------------------------------------------------|
----------------------------|-------------------------------------------------|
----------------------------|-------------------------------------------------|
--222/-5-5--111-000---------|-222/-5555-1111-0000-----------------------------|
--222/-5-5--111-000---------|-222/-5555-1111-0000-----------------------------|
--222/-5-5--111-000---------|-222/-5555-1111-0000-----------------------------|
Comments