American Head Charge - Song For The Suspect Chords & Tabs

 

Song For The Suspect Chords & Tabs

American Head Charge Chords & Tabs

Version: 2 Type: Tab 0 ratings
1 star 2 stars 3 stars 4 stars 5 stars
comments

Song For The Suspect Tab

   
American Head Charge     Tuning:C |-   (you might want a tuner for this)
"Song for the Suspect"          G |-
The War of Art                  Eb|-
American Recordings             Bb|- 
                                F |-
                                Bb|-
 [intro fig.1]Clean
 (on the record this is played on a piano but your not a pianist so try this) 
C |--------------------------------------|
G |--------------------------------------|
Eb|--------------------------------------|                                    
Bb|-5-6-5-5-5--3-3-3/8-10-10/12-12--18---|
F |--------------------------------------|                                   
Bb|--------------------------------------|

 [intro fig.2]Distorted                                         x4
C |---------------------------------------------------------------|
G |---------------------------------------------------------------|
Eb|-12/15-15-11-11-11-11/14-14-10-10-10-10/13-13-9-9-9-9/12-12-12-|
Bb|--x/-x--x--x--x--x--x/-x--x--x--x--x--x/-x--x-x-x-x-x/-x--x--x-|
F |-10/13-13--9--9--9--9/12-12--8--8--8--8/11-11-7-7-7-7/10-10-10-|
Bb|---------------------------------------------------------------|

   let ring                                                     
C |---------------------------------------------------------------|
G |---------------------------------------------------------------|
Eb|-------------------------------------------15-15-15-14-14-14---|
Bb|-13--13-13-13-13--13-13-13-13--13-13-13-13--x--x--x--x--x--x---|
F |-13--13-13-13-13--13-13-13-13--13-13-13-13-13-13-13-12-12-12---|
Bb|-13--13-13-13-13--13-13-13-13--13-13-13-13---------------------|

 [verse gtr.1]Distorted                                         x8
C |---------------------------------------------------------------|
G |---------------------------------------------------------------|
Eb|-12/16-x-x-x--11/14-x-x-x--10/13-x-x-x--9/12-x-x-x-------------|
Bb|--x/-x-x-x-x---x/-x-x-x-x---x/-x-x-x-x--x/-x-x-x-x-------------|
F |-10/13-x-x-x---9/12-x-x-x---8/11-x-x-x--7/10-x-x-x-------------|
Bb|---------------------------------------------------------------|

 [verse gtr.2]Distorted                                         x8
C |---------------------------------------------------------------|
G |---------------------------------------------------------------|
Eb|---------------------------------------------------------------|
Bb|-5-8-x-x-x--4-7-x-x-x--3-6-x-x-x--2-5-x-x-x--------------------|
F |-5---x-x-x--4---x-x-x--3---x-x-x--2---x-x-x--------------------|
Bb|-5---x-x-x--4---x-x-x--3---x-x-x--2---x-x-x--------------------|

 [chorus 1] let ring
C |---------------------------------------------------------------|
G |---------------------------------------------------------------|
Eb|---------------------------------------------------------------|
Bb|-1--1-1-1-1--1-1-1-1--1-1-1-1--1-1-1-1--0----3--4--5-----------|
F |-1--1-1-1-1--1-1-1-1--1-1-1-1--1-1-1-1--0----3--4--5-----------|
Bb|-1--1-1-1-1--1-1-1-1--1-1-1-1--1-1-1-1--0----3--4--5-----------|
[ Tab from: http://www.guitartabs.cc/tabs/a/american_head_charge/song_for_the_suspect_tab_ver_2.html ]
C |---------------------------------------------------------------|
G |---------------------------------------------------------------|
Eb|---------------------------------------------------------------|
Bb|-10-10-10-13-13-13-9-9-9-12-12-12-8-8-8-11-11-11-7-7-7-10-10-10|
F |---------------------------------------------------------------|
Bb|---------------------------------------------------------------|
   p.m.-----------------------------------------------------------

 [verse gtr.2]Distorted                      
  (or play verse gtr.1 but this one is heavier)                 x8
C |---------------------------------------------------------------|
G |---------------------------------------------------------------|
Eb|---------------------------------------------------------------|
Bb|-5-8-x-x-x--4-7-x-x-x--3-6-x-x-x--2-5-x-x-x--------------------|
F |-5---x-x-x--4---x-x-x--3---x-x-x--2---x-x-x--------------------|
Bb|-5---x-x-x--4---x-x-x--3---x-x-x--2---x-x-x--------------------|

 [chorus 2] let ring                                            x2
C |---------------------------------------------------------------|
G |---------------------------------------------------------------|
Eb|------------------------------15-14----------------------------|
Bb|-1--1-1-1-1--1-1-1-1--1-1-1-1--x--x-5--7-8---------------------|
F |-1--1-1-1-1--1-1-1-1--1-1-1-1-13-12-5--7-8---------------------|
Bb|-1--1-1-1-1--1-1-1-1--1-1-1-1-------5--7-8---------------------|

C |---------------------------------------------------------------|
G |---------------------------------------------------------------|
Eb|---------------------------------------------------------------|
Bb|-1--1-1-1-1--1-1-1-1--1-1-1-1--1-1-1-1-0----3--4---------------|
F |-1--1-1-1-1--1-1-1-1--1-1-1-1--1-1-1-1-0----3--4---------------|
Bb|-1--1-1-1-1--1-1-1-1--1-1-1-1--1-1-1-1-0----3--4---------------|

   Clean                               x2
C |--------------------------------------|
G |--------------------------------------|
Eb|--------------------------------------|                                    
Bb|-5-6-5-5-5--3-3-3/8-10-10/12-12--18---|
F |--------------------------------------|                                   
Bb|--------------------------------------|
   
   Clean                                                        x4
C |---------------------------------------------------------------|
G |---------------------------------------------------------------|
Eb|---------------------------------------------------------------|
Bb|-5-5-5-6-5-5-5--3-3-3/8-10-10-10-10/12-12-12--6-6-6------------|
F |---------------------------------------------------------------|
Bb|---------------------------------------------------------------|

   [outro] Distorted                                            x5        
C |---------------------------------------------------------------|
G |---------------------------------------------------------------|
Eb|---------------------------------------------------------------|
Bb|-5-5-5-6-5-5-5--3-3-3/8-10-10-10-10/12-12-12--6-6-6------------|
F |-5-5-5-6-5-5-5--3-3-3/8-10-10-10-10/12-12-12--6-6-6------------|
Bb|-5-5-5-6-5-5-5--3-3-3/8-10-10-10-10/12-12-12--6-6-6------------|
                                                
                                                Let ring
C |---------------------------------------------------------------|
G |---------------------------------------------------------------|
Eb|---------------------------------------------9-----------------|
Bb|-5-5-5-6-5-5-5--3-3-3/8-10-10-10-10-12-12----6-----------------|
F |-5-5-5-6-5-5-5--3-3-3/8-10-10-10-10-12-12----6-----------------|
Bb|-5-5-5-6-5-5-5--3-3-3/8-10-10-10-10-12-12----6-----------------|

  Im really tired ill probably put the lyrics in tomorrow

  Tabbed by KingofWalrus
  shaggy2vi@aol.com
Comments