American Football - Never Meant Chords & Tabs

 

Never Meant Chords & Tabs

American Football Chords & Tabs

Version: 2 Type: Tab 0 ratings
1 star 2 stars 3 stars 4 stars 5 stars
comments

Never Meant Tab


    
"Never Meant"
American Football


I stole this from someone else though, so I must give credit:
Tabbed by Alec LaLonde (http://www.angelfire.com/ny4/cela). As far as
I can tell, Alec did a pretty good job. Some of it needed adjusting in
my opinion, but this is the first time in over a year of searching
that I've come across anything that was even worth looking at. Enjoy.
-Burly (Abergqu@uark.edu)


Intro riff (guitar 1)
e-----------------------0--1/3-
B-5p3----------0--1/3----------
G-----3--0-2-------------------
D------------------------------

Intro riff (guitar 2)
e--------------0----------
B----------0-1---1--------  5x
G-------------------------
D-------------------------

Continue several times until guitar 3 comes in at 0:32 with:
e-3p0----3p0----0h1-0-------0---
B-----1------1--------1---1---1-
G-------------------------------
D-------------------------------

Guitars 3 stops at 1:12, others continue
Guitar 3 enters again at 1:31 with this riff:
e-3p0---------------------
B-----1h3-----------------
G-------------------------
D-------------------------
[ Tab from: http://www.guitartabs.cc/tabs/a/american_football/never_meant_tab_ver_2.html ]
Then all guitars switch at 2:14
Guitar 1 plays sweet riff:
e-15p12----12--15p12-12h13-12h13-------
B-------15-----------------------13p10-
G--------------------------------------
D--------------------------------------

Guitar 2 plays backing part:
e-----0-1p0-------------
B---1-------------------
G-2---------------------
D-----------------------

Guitar 3 comes in at 2:30 and 2:50 with a funky riff:
e-------------------------
B-------------------------
G-----5-4b5b4-------------
D---5---------------------
A-3-----------------------

Then things switch again at 2:58
Guitar 1 leads with:
e-8-8/5-5-5/3-3-3p0---------------
B-------------------5-5/3-3-3h5p1-
G---------------------------------
D---------------------------------

I'm not sure about the backing part but it might be:
e-------1p0-----1p0-----1p0-----1p0--------1~~~~~
B-----1-------1-------1-------1----------1-------
G---2-------2-------2-------2----------2---------
D-3----------------------------------3-----------
A----------------------------------3-------------

Then guitars 1 and 2 go back to the intro riff and
guitar 3 plays the same riff as at 0:32.
Comments