America - Star Spangled Banner Chords & Tabs

 

Star Spangled Banner Chords & Tabs

America Chords & Tabs

Version: 1 Type: Tab 0 ratings
1 star 2 stars 3 stars 4 stars 5 stars
comments

Star Spangled Banner Tab

(standard tuning)

p- pull off
~- let ring
/- slide up

e|---0-------2-5---9-7-5-----------9-7-5-4-2-4-5------|
B|-----2---2-------------2-4-5---5---------------5-2--|
G|-------2-------------------------------------------2|
D|----------------------------------------------------|
A|----------------------------------------------------|
E|----------------------------------------------------|


e|---999-10-1212--10-9-7-9-1010---9-7-5-4-2-4-5-------|
B|-----------------------------------------------5-2--|
G|---------------------------------------------------2|
D|----------------------------------------------------|
A|----------------------------------------------------|
E|----------------------------------------------------|

[ Tab from: http://www.guitartabs.cc/tabs/a/america/star_spangled_banner_tab.html ]
e|---12~-------12~---12~-------12~--16~-------12~-16~-|
B|---12~---12~-----------12~--------------12~---------|
G|----------------------------------------------------|
D|----------------------------------------------------|
A|----------------------------------------------------|
E|----------------------------------------------------|


----12~16~----12~16~|
--12~-------12~-----|
--------------------|
--------------------|
--------------------|
--------------------|


e|---5-5-5p4--2-2-2-/777-5-4--00-5~--7-9-10-12---5-7--9~~-|
B|--------------------------------------------------------|
G|--------------------------------------------------------|
D|--------------------------------------------------------|
A|--------------------------------------------------------|
E|--------------------------------------------------------|


--10-7~~--5~~~~~|
----------------|
----------------|
----------------|
----------------|
----------------|
Comments