America - Horse With No Name Chords & Tabs

 

America Chords & Tabs

Version: 2 Type: Tab 1 rating
1 star 2 stars 3 stars 4 stars 5 stars
comments

Horse With No Name Tab

   
1  -------0--0--------0--0------0----0--0---0------0--0--
2  -------0--0--------0--0------0----0--0---0--0---0--0--
3  -0-----0--0--------0--0------2----2--2---0--0---0--0--
4  -5-----5--5--5-----5------0--0--x----0------5---5-----
5  -7-----7--7--7--7--7------x--x--x----x------7---7-----
6  -0-----0--0--0--0--0------2--2--x----0------0---0-----


1  ----0-----0-----------0-----0---0-----0-----0----------- 
2  ----0-----0--0--0-----0--0--0---0-----0-----0--0--0-----
3  -2--2-----2--2--2--2--0--0--0---0--2--2-----2--2--2--2--
4  -0--0--x--0--0--0--0-----5--5------0--0--x--0--0--0--0--
5  -x--x--x-----x-----x-----7--7------x--x--x-----x-----x--
6  -2--2--x-----0-----0-----0--0------2--2--x-----0-----0--

[ Tab from: http://www.guitartabs.cc/tabs/a/america/horse_with_no_name_tab_ver_2.html ]
     Em                     D6/9/F#                Em
the first thing I met was a fly witha buzz and the sky with 

      D6/9/F#       Em                   D6/9/F#
no clouds       the heat was hot and the ground was dry  

        Em               D6/9/F#       Em9
but the air was full of sound     I've been thru the desert 

   D6/9/F#                     Em9                   D6/9/F#
on horse with no name  It felt good to get out of the rain 

       Em9              D6/9/F#                      Em9
in the desert you can remember your name cause there ain't 

          D6/9/F#
no one to give you no pain


this guitar tab is crude i apologize thank you for your time 
Comments