Amen - Money Infection Chords & Tabs

 

Money Infection Chords & Tabs

Amen Chords & Tabs

Version: 1 Type: Tab 0 ratings
1 star 2 stars 3 stars 4 stars 5 stars
comments

Money Infection Tab

I decided to post this as I Can't find all of the death before musick tabs anywere and i
know some people are looking for more, when I get them i will post them, btw I cant tab
(i dont know whats being played/what notes are being hit) so these are not my tabs just
ones people have found for me, enjoy!

Song: Money Infection
Album: Death before musick
Artist: Amen
Guitarists: Rich Jones and Matt Montgomary (both have left)
Written by Casey Chaos
Tuning (low to high): DADGBE

|----------------------------------------------------------------------|
|----------------------------------------------------------------------|
|----------------------------------------------------------------------|
|----------------------------------------------------------------------|
|------------------------------------2-2-2-2-2-2-2-2--1-1-1-1-1-1-1-1--|
|--2-2-2-2-2-2-2-2--1-1-1-1-1-1-1-1------------------------------------|
[ Tab from: http://www.guitartabs.cc/tabs/a/amen/money_infection_tab.html ]
|----------------------------------------------------------------------|
|----------------------------------------------------------------------|
|----------------------------------------------------------------------|
|--2-2-2-2-2-2-2-2--1-1-1-1-1-1-1-1--4-4-4-4-4-4-4-4--3-3-3-3-3-3-3-3--|
|--2-2-2-2-2-2-2-2--1-1-1-1-1-1-1-1--4-4-4-4-4-4-4-4--3-3-3-3-3-3-3-3--|
|--2-2-2-2-2-2-2-2--1-1-1-1-1-1-1-1--4-4-4-4-4-4-4-4--3-3-3-3-3-3-3-3--|

|----------------------------------------------------------------|
|----------------------------------------------------------------|
|----------------------------------------------------------------|
|--2-2-2-2-2-2-2-2--1-1-1-1-1-1-1-1---11-8---11-8---11-8---11-8--|
|--2-2-2-2-2-2-2-2--1-1-1-1-1-1-1-1---11-8---11-8---11-8---11-8--|
|--2-2-2-2-2-2-2-2--1-1-1-1-1-1-1-1---11-8---11-8---11-8---11-8--|

|---------------------------------------------------------|
|---------------------------------------------------------|
|---------------------------------------------------------|
|---------------------------------------------------------|
|---------2----------2----------------2----------2-2-2-2--|
|--0--2-4------0-0-2---4-4-4---0--2-4------0-0-2----------|
Comments