Amen - In Your Suit Chords & Tabs

 

In Your Suit Chords & Tabs

Amen Chords & Tabs

Version: 1 Type: Tab 0 ratings
1 star 2 stars 3 stars 4 stars 5 stars
comments

In Your Suit Tab

   
#----------------------------------PLEASE NOTE---------------------------------#
#This file is the author's own work and represents their interpretation of the-#
#song. You may only use this file for private study, scholarship, or research.-#
#------------------------------------------------------------------------------#

In Your Suit by Amen (from the album 'We have come for your parents')
tabbed by John Halfpenny (jhalfpenny@excite.com)

Drop D tuning. You can figure the noisy feedback bits for yourself --just make
sure you're FACING the amp or it won't be quite as effective! B;)


Intro

e --------------------------------|
B --------------------------------|
G --------------------------------|
D --------------------------------|
A --------------------------------|
D --0---0---0-0---x---x---x-x-x---|

e ----------------------------------------------------------------|
B ----------------------------------------------------------------|
G ----------------------------------------------------------------|
D ----------------------------------------------------------------|
A ----------------x---x---x-x-x-x-----------------x---x---x-x-x-x-|
D 0---0-0---0-0---x---x---x-x-x-x-0---0-0---0-0---x---x---x-x-x-x-| x3

e --------------------------------|
B --------------------------------|
G --------------------------------|
D --------------------------------|
A --------------------------------|
D 0---0-0---0-0-------------------|


Verse

e ----------------------------------------------------|
B ----------------------------------------------------|
G ------------------------------------1212121215151515|
D 0---0---0---0-0-x-x-x-x-0---0---0---1010101013131313|
A 0---0---0---0-0-x-x-x-x-0---0---0---1010101013131313|
D 0---0---0---0-0-x-x-x-x-0---0---0---1010101013131313| &

e ----------------------------------------------------|
B ----------------------------------------------------|
G ------------------------------------1515151515151515|
D 0---0---0---0-0-x-x-x-x-0---0---0---1313131313131313|
A 0---0---0---0-0-x-x-x-x-0---0---0---1313131313131313|
D 0---0---0---0-0-x-x-x-x-0---0---0---1313131313131313| x2

e ----------------------------------------------------------------|
B ----------------------------------------------------------------|
G ----------------------------------------------------------------|
D 3-------------------------------5-------------------------------|
A 3-------------------------------5-------------------------------|
D 3-------------------------------5-------------------------------|
 'vaccine is...'                 'plague in here...'

e ----------------------------------------------------------------|
B ----------------------------------------------------------------|
G ----------------------------------------------------------------|
D 10------------------------------10------------------------------|
A 10----0-0-0-----0-----0-0-0-----10----0-0-0-----0-----0-0-0-----|
D 10----0-0-0-----0-----0-0-0-----10----0-0-0-----0-----0-0-0-----| x2
 'slave!'


Chorus

two guitars
e ----------------------------------------------------------------|
B ----------------------------------------------------------------|
G 7-7-7-7-7-7-7-7-7-7-7-7-7-7-7-7-5/7-7-7-7-7-7-7-7-7-7-7-7-7-7-7-|
D 7-7-7-7-7-7-7-7-7-7-7-7-7-7-7-7-5/7-7-7-7-7-7-7-7-7-7-7-7-7-7-7-|
A ----------------------------------------------------------------|
D ----------------------------------------------------------------|
                                                                  |
e ----------------------------------------------------------------|
B ----------------------------------------------------------------|
G 7-7-7-7-7-7-7-7-7-7-7-7-7-7-7-7-8-8-8-8-8-8-8-8-8-8-8-8-8-8-8-8-|
D 7-7-7-7-7-7-7-7-7-7-7-7-7-7-7-7-8-8-8-8-8-8-8-8-8-8-8-8-8-8-8-8-|
A 5-5-5-5-5-5-5-5-5-5-5-5-5-5-5-5-6-6-6-6-6-6-6-6-6-6-6-6-6-6-6-6-|
D ----------------------------------------------------------------|

[ Tab from: http://www.guitartabs.cc/tabs/a/amen/in_your_suit_tab.html ]
e ----------------------------------------------------------------|
B ----------------------------------------------------------------|
G 5/7-7-7-7-7-7-7-7-7-7-7-7-7-7-7-5/7-7-7-7-7-7-7-7-7-7-7-7-7-7-7-|
D 5/7-7-7-7-7-7-7-7-7-7-7-7-7-7-7-5/7-7-7-7-7-7-7-7-7-7-7-7-7-7-7-|
A ----------------------------------------------------------------|
D ----------------------------------------------------------------|
                                                                  |
e ----------------------------------------------------------------|
B ----------------------------------------------------------------|
G 9-9-9-9-9-9-9-9-9-9-9-9-9-9-9-9-1010101010101010101010101212----|
D 9-9-9-9-9-9-9-9-9-9-9-9-9-9-9-9-1010101010101010101010101212----|
A 7-7-7-7-7-7-7-7-7-7-7-7-7-7-7-7-8-8-8-8-8-8-8-8-8-8-8-8-1010----|
D ----------------------------------------------------------------|


e ----------------------------------------------------------------|
B ----------------------------------------------------------------|
G 5/7-7-7-7-7-7-7-7-7-7-7-7-7-7-7-5/7-7-7-7-7-7-7-7-7-7-7-7-7-7-7-|
D 5/7-7-7-7-7-7-7-7-7-7-7-7-7-7-7-5/7-7-7-7-7-7-7-7-7-7-7-7-7-7-7-|
A ----------------------------------------------------------------|
D ----------------------------------------------------------------|
                                                                  |
e ----------------------------------------------------------------|
B ----------------------------------------------------------------|
G 7-7-7-7-7-7-7-7-7-7-7-7-7-7-7-7---------------------------------|
D 7-7-7-7-7-7-7-7-7-7-7-7-7-7-7-7-6---6-6-6-6-----6---6-6-6-6-----|
A 5-5-5-5-5-5-5-5-5-5-5-5-5-5-5-5-6---6-6-6-6-----6---6-6-6-6-----|
D --------------------------------6---6-6-6-6-----6---6-6-6-6-----|


e ----------------------------------------------------------------|
B ----------------------------------------------------------------|
G 5/7-7-7-7-7-7-7-7-7-7-7-7-7-7-7-5/7-7-7-7-7-7-7-7-7-7-7-7-7-7-7-|
D 5/7-7-7-7-7-7-7-7-7-7-7-7-7-7-7-5/7-7-7-7-7-7-7-7-7-7-7-7-7-7-7-|
A ----------------------------------------------------------------|
D ----------------------------------------------------------------|
                                                                  |
e ----------------------------------------------------------------|
B ----------------------------------------------------------------|
G ----------------------------------------------------------------|
D 5---5-5-5-5-----5---5-5-5-5-----3---3-3-3-3-----3---3-3-3-3-----|
A 5---5-5-5-5-----5---5-5-5-5-----3---3-3-3-3-----3---3-3-3-3-----|
D 5---5-5-5-5-----5---5-5-5-5-----3---3-3-3-3-----3---3-3-3-3-----|


e ----------------------------------------------------------------|---|
B ----------------------------------------------------------------|---|
G ----------------------------------------------------------------|---|
D 0-----0-----0--f-e-e-d-b-a-c-k--0-----0-----0--f-e-e-d-b-a-c-k--|-0-|
A 0-----0-----0-----a-n-d---------0-----0-----0-----a-n-d---------|-0-|
D 0-----0-----0----n-o-i-s-e------0-----0-----0----n-o-i-s-e------|-0-|


Verse last ending

e --------------------------------------------------------|
B --------------------------------------------------------|
G ------------1212121215151515------------1414141417171717|
D 0---0---0---10101010131313130---0---0---1212121215151515|
A 0---0---0---10101010131313130---0---0---1212121215151515|
D 0---0---0---10101010131313130---0---0---1212121215151515|x2


Outro (slow down)
e ----------------------------------------------------------------|
B ----------------------------------------------------------------|
G ----------------------------------------------------------------|
D 0-----------------------3-------0-----------------------10--10--|
A 0-----------------------3-------0-----------------------10--10--|
D 0-----------------------3-------0-----------------------10--10--|

e ----------------------------------------------------------------|
B ----------------------------------------------------------------|
G ----------------------------------------------------------------|
D 0-----------------------3-------0-------------------------------|
A 0-----------------------3-------0-------------------------------|
D 0-----------------------3-------0-------------------------------|


================================================================================
Comments