Amen - Hello One Chord Lovers Chords & Tabs

 

Hello One Chord Lovers Chords & Tabs

Amen Chords & Tabs

Version: 1 Type: Tab 0 ratings
1 star 2 stars 3 stars 4 stars 5 stars
comments

Hello One Chord Lovers Tab

   
Band: Amen
Song: Hello (One Chord Lovers)
Album: DEATH BEFORE MUSICk
Written and recorded by: Casey Chaos
Tabbed By someone who done me a favour, Robin west, Thank you very much!
Tuning: Drop C (C,G,C,F,A,D)

Intro: Guitar 1
|-----------------------------------------------|
|--------2-------2------2-----------------------|
|---2/44----4-44---4-44---4-44/2----------------|
|-----------------------------------------------|
|-----------------------------------------------|
|-----------------------------------------------|

Intro: Guitar 2
|-----------------------|
|-----------------------|
|-----------------------|
|---0-1--3-/8-----------|
|---0-1--3-/8-----------|
|---0-1--3-/8-----------|


Verse
|--------------------------------------------------------|
|--------------------------------------------------------|
|--------------------------------------------------------|
|--------------------------------------------------------|
|-------------7~~~(Rotary or Flanger)/3~~~~~-------------|
|--------------------------------------------------------|

Riff:
|-------------------------------|
|-------------------------------|
|-------------------------------|
|---3b-000----------------------|
|---3b-000----------------------|
|---3b-000----------------------|

The first time the "Riff" is played guitar 1 plays the
above eight times then plays:
|-------------------------------|
|-------------------------------|
|---1~---3~/8~------------------|
|-------------------------------|
|-------------------------------|
|-------------------------------|
[ Tab from: http://www.guitartabs.cc/tabs/a/amen/hello_one_chord_lovers_tab.html ]
Pre Chorus: Both Guitars (X2)
|-------------------------------------------|
|-------------------------------------------|
|----------3---------4--------5--------6----|
|---3b-000-3--3b-000-4--3b000-5--3b000-6----|
|---3b-000-1--3b-000-2--3b000-3--3b000-4----|
|---3b-000----3b-000----3b000----3b000------|

Chorus
|------------------------------------------------------------------|
|------------------------------------------------------------------|
|------------------------------------------------------------------|
|---12--7--8--5-----12--7--8---0/5---0/7---12--7-8-----0-5--8------|
|---12--7--8--5-----12--7--8---0/5---0/7---12--7-8-----0-5--8------|
|---12--7--8--5-----12--7--8---0/5---0/7---12--7-8-----0-5--8------|

Bridge:
|------------------------------------------------------------------|
|------------------------------------------------------------------|
|------------------------------------------------------------------|
|---0---1---3------------------------------------------------------|
|---0---1---3------------------------------------------------------|
|---0---1---3------------------------------------------------------|

Outro:
|---0-0-0-0---|
|---0-0-0-0---|
|---0-0-0-0---|


Order:
Intro
riff
Verse
Pre Chorus
Chorus
Riff (both guitars play Guitar 2 parts)
Verse
Pre Chorus
Chorus
Bridge
Chorus
Outro

Its a very easy song, shouldn't take long to learn. This tab shows you what to play but 
how many times, you can work it out your self. And i know nearly every single Amen Song 
in dropped D, but a few songs off death before musick are different (Like this one).

Any Questions e-mail me at:
dragqueen_13@hotmail.com
wotzitz1234@aol.com (suggest you use this one, my e-mail on hotmail is dodgy at the mo)
Comments