Amen - Coma America Chords & Tabs

 

Coma America Chords & Tabs

Amen Chords & Tabs

Version: 2 Type: Tab 0 ratings
1 star 2 stars 3 stars 4 stars 5 stars
comments

Coma America Tab

Drop D tuning
 
 Intro
 First bit

 b)----------------------------------------------------------I
 g)--8--7----8--7----8--7----8--7----8--7----8--7----8--7----I
 D)--8--7----8--7----8--7----8--7----8--7----8--7----8--7----I
 A)--6--5----6--5----6--5----6--5----6--5----6--5----6--5----I
 D)----------------------------------------------------------I
 
 b)-----------I
 g)---8--7----I
 D)---8--7----I
 A)---6--5----I
 D)-----------I

 Intro
 second bit when casey screams 'cut off' -- about 0.24

 g)---------8---------7---------8---------7-----------8---------7---I
 D)---------8---------7---------8---------7-----------8---------7---I
 A)---------6---------5---------6---------5-----------6---------5---I
 D)---0--0------0--0------0--0------0--0--------0--0------0--0------I

 g)--------10---------12----I
 D)--------10---------12----I
 A)---------8---------10----I
 D)---0--0------0--0--------I

 g)---------8---------7---------8---------7-----------8---------7---I
 D)---------8---------7---------8---------7-----------8---------7---I
 A)---------6---------5---------6---------5-----------6---------5---I
 D)---0--0------0--0------0--0------0--0--------0--0------0--0------I

 g)--------10-----I
 D)--------10-----I
 A)---------8-----I
 D)---0--0--------I

 

  Verse

 'This is for the suffer, this is for the proof...' - about 0.36
 
   P.M _ _ _ _ _ _ _  _ _ _ _ _ _ _ _ _ _ _ _ _ _ _ _ _ _ _ _ _ _ _ _ _ _ 	        
 g)-------------------------------------------------------------------------I 
 D)---0--0--1---0--0--1---0--0--1---0--0--1---0--0--1---0--0--1---0--0--1---I 
 A)---0--0--1---0--0--1---0--0--1---0--0--1---0--0--1---0--0--1---0--0--1---I  
 D)---0--0--1---0--0--1---0--0--1---0--0--1---0--0--1---0--0--1---0--0--1---I

 End palm mute for this little bit

 g)------------------I
 D)---0--5--8--8-----I
 A)---0--5--8--8-----I
 D)---0--5--8--8-----I


 Then P.M this bit again
  
  P.M _ _ _ _ _ _ _  _ _ _ _ _ _ _ _ _ _ _ _ _ _ _ _ _ _ _ _ _ _ _ _ _ _ 	        
 g)-------------------------------------------------------------------------I 
 D)---0--0--1---0--0--1---0--0--1---0--0--1---0--0--1---0--0--1---0--0--1---I 
 A)---0--0--1---0--0--1---0--0--1---0--0--1---0--0--1---0--0--1---0--0--1---I  
 D)---0--0--1---0--0--1---0--0--1---0--0--1---0--0--1---0--0--1---0--0--1---I


  Then play this bit of the intro again - about 0.49

 g)---------8---------7---------8---------7-----------8---------7---I
 D)---------8---------7---------8---------7-----------8---------7---I
 A)---------6---------5---------6---------5-----------6---------5---I
 D)---0--0------0--0------0--0------0--0--------0--0------0--0------I

 g)--------10---------12----I
 D)--------10---------12----I
 A)---------8---------10----I
 D)---0--0------0--0--------I

 g)---------8---------7---------8---------7-----------8---------7---I
 D)---------8---------7---------8---------7-----------8---------7---I
 A)---------6---------5---------6---------5-----------6---------5---I
 D)---0--0------0--0------0--0------0--0--------0--0------0--0------I

 g)--------10-----I
 D)--------10-----I
 A)---------8-----I
 D)---0--0--------I

  Then its the verse again
 
  'This is for the treason , this is for the speed......'  1.02

    P.M _ _ _ _ _ _ _  _ _ _ _ _ _ _ _ _ _ _ _ _ _ _ _ _ _ _ _ _ _ _ _ _ _ 	        
 g)-------------------------------------------------------------------------I 
 D)---0--0--1---0--0--1---0--0--1---0--0--1---0--0--1---0--0--1---0--0--1---I 
 A)---0--0--1---0--0--1---0--0--1---0--0--1---0--0--1---0--0--1---0--0--1---I  
 D)---0--0--1---0--0--1---0--0--1---0--0--1---0--0--1---0--0--1---0--0--1---I

 End palm mute for this little bit

 g)------------------I
 D)---0--5--8--8-----I
 A)---0--5--8--8-----I
 D)---0--5--8--8-----I

[ Tab from: http://www.guitartabs.cc/tabs/a/amen/coma_america_tab_ver_2.html ]
 Then P.M this bit again
  
  P.M _ _ _ _ _ _ _  _ _ _ _ _ _ _ _ _ _ _ _ _ _ _ _ _ _ _ _ _ _ _ _ _ _ 	        
 g)-------------------------------------------------------------------------I 
 D)---0--0--1---0--0--1---0--0--1---0--0--1---0--0--1---0--0--1---0--0--1---I 
 A)---0--0--1---0--0--1---0--0--1---0--0--1---0--0--1---0--0--1---0--0--1---I  
 D)---0--0--1---0--0--1---0--0--1---0--0--1---0--0--1---0--0--1---0--0--1---I

 Now play the chorus

 Start playing just a bit before casey says 'COMA AMERICA' - about 1.13

 g)--------------------------------------------------I
 D)---6-5-3-0--6-5-3-0--6-5-3-0---6-6-6-6------------I
 A)---6-5-3-0--6-5-3-0--6-5-3-0---6-6-6-6------------I
 D)---6-5-3-0--6-5-3-0--6-5-3-0---6-6-6-6------------I

 g)--------------------------------------------------I
 D)---6-5-3-0--6-5-3-0--6-5-3-0---6-6-6-6------------I
 A)---6-5-3-0--6-5-3-0--6-5-3-0---6-6-6-6------------I
 D)---6-5-3-0--6-5-3-0--6-5-3-0---6-6-6-6------------I

 g)--------------------------------------------------I
 D)---6-5-3-0--6-5-3-0--6-5-3-0---6-6-6-6------------I
 A)---6-5-3-0--6-5-3-0--6-5-3-0---6-6-6-6------------I
 D)---6-5-3-0--6-5-3-0--6-5-3-0---6-6-6-6------------I

 g)--------------------------------------------------I
 D)---6-5-3-0--6-5-3-0--6-5-3-0---6-5-6-8------------I
 A)---6-5-3-0--6-5-3-0--6-5-3-0---6-5-6-8------------I
 D)---6-5-3-0--6-5-3-0--6-5-3-0---6-5-6-8------------I
 
 


   Then play this bit of the intro again - about 1.26

 g)---------8---------7---------8---------7-----------8---------7---I
 D)---------8---------7---------8---------7-----------8---------7---I
 A)---------6---------5---------6---------5-----------6---------5---I
 D)---0--0------0--0------0--0------0--0--------0--0------0--0------I

 g)--------10---------12----I
 D)--------10---------12----I
 A)---------8---------10----I
 D)---0--0------0--0--------I

 g)---------8---------7---------8---------7-----------8---------7---I
 D)---------8---------7---------8---------7-----------8---------7---I
 A)---------6---------5---------6---------5-----------6---------5---I
 D)---0--0------0--0------0--0------0--0--------0--0------0--0------I

 g)--------10-----I
 D)--------10-----I
 A)---------8-----I
 D)---0--0--------I

 After that there is a quiet bit with feedback and strange efects for a while  

  Play chorus again at 1.52
 
 g)--------------------------------------------------I
 D)---6-5-3-0--6-5-3-0--6-5-3-0---6-6-6-6------------I
 A)---6-5-3-0--6-5-3-0--6-5-3-0---6-6-6-6------------I
 D)---6-5-3-0--6-5-3-0--6-5-3-0---6-6-6-6------------I

 g)--------------------------------------------------I
 D)---6-5-3-0--6-5-3-0--6-5-3-0---6-6-6-6------------I
 A)---6-5-3-0--6-5-3-0--6-5-3-0---6-6-6-6------------I
 D)---6-5-3-0--6-5-3-0--6-5-3-0---6-6-6-6------------I

 g)--------------------------------------------------I
 D)---6-5-3-0--6-5-3-0--6-5-3-0---6-6-6-6------------I
 A)---6-5-3-0--6-5-3-0--6-5-3-0---6-6-6-6------------I
 D)---6-5-3-0--6-5-3-0--6-5-3-0---6-6-6-6------------I

 g)--------------------------------------------------I
 D)---6-5-3-0--6-5-3-0--6-5-3-0---6-5-6-8------------I
 A)---6-5-3-0--6-5-3-0--6-5-3-0---6-5-6-8------------I
 D)---6-5-3-0--6-5-3-0--6-5-3-0---6-5-6-8------------I
 
  Now play the verse again,but from 2.04 till 2.10 there is no bass

     
 g)---------8---------7---------8---------7-----------8---------7---I
 D)---------8---------7---------8---------7-----------8---------7---I
 A)---------6---------5---------6---------5-----------6---------5---I
 D)---0--0------0--0------0--0------0--0--------0--0------0--0------I

 g)--------10---------12----I
 D)--------10---------12----I
 A)---------8---------10----I
 D)---0--0------0--0--------I

 Bass starts here
                 'wire mouths , wire mouths....'
 g)---------8---------7---------8---------7-----------8---------7---I
 D)---------8---------7---------8---------7-----------8---------7---I
 A)---------6---------5---------6---------5-----------6---------5---I
 D)---0--0------0--0------0--0------0--0--------0--0------0--0------I

 g)--------10-----I
 D)--------10-----I
 A)---------8-----I
 D)---0--0--------I

 
Comments to d_squibb@hotmail.com

 
   
Comments