Ambrosia - How Much I Feel Chords & Tabs

 

Ambrosia Chords & Tabs

Version: 1 Type: Bass Tab 0 ratings
1 star 2 stars 3 stars 4 stars 5 stars
comments

How Much I Feel Bass Tab

How Much I Feel
Ambrosia
Bass Tab
Bassist: Joe Puerta

96BPM, 4/4

Intro

|-------------|-------------|-------------|-----------------|
|-7----7-7----|-----9-9-----|------9-9----|-----------------|
|-----------7-|-------------|-----------7-|--7-6-6-4-4------|
|-------------|----------7\-|-5-----------|------------7-7--|

Verse

|------------|------------|-----------|-------------|
|------------|------------|---------7-|-4-----------|
|-------7--7-|------------|-----------|-------------|
|-5----------|-5-----0--0-|-5---------|------7-7--7-|

|-------------|------------|-----------|------------|
|-----------9-|------------|-----------|------------|
|-7----7-7----|-----7-7----|------7--7-|-------7--7-|
|-------------|----------5-|-----------|-5----------|

|-------------|--------------|--------------|------------------|
|----------76-|-4------------|--------------|---x-4--/6-4------|
|-------7-----|-----------24-|------2-2-4-2-|-7-----------7-6--|
|-5-----------|------7-7-----|-0------------|------------------|

|--------------|-------------|-----4-2---2-|-1---1--------|
|--------------|-------------|-------------|-------4------|
|-4----4-4-----|-------------|-2-----------|--------------|
|-----------54-|-2----2-2--2-|-------------|-----------7--|

|-------------|----------|
|--------9----|----------|
|-7----7----7-|---\------|
|-------------|--------5-|

Chorus

|--------------|---------------|---------------|---------------|
|---7\---------|---------------|---7\----------|---------------|
|-------2-2----|-7--6--4-------|-------2-2--24-|-----------2---|
|------------7-|---------7-0-5-|---------------|-0--2--4-4-----|

|--------------|--6-6\---------|---------------|--6-6\---------|
|----7--64-----|---------------|---------------|---------------|
|---------7--4-|--------2-2----|-------------4-|--------2-2----|
|-5------------|-------------2-|--0-2-224-4----|-------------2-|

|-------------|----2-----911p|-9----986---6-|---9---8----------|
|-------------|--24----------|----------9---|------------------|
|-------------|--------------|--------------|-7---6---4-4------|
|--0-2--4-4---|--------------|--------------|-------------7-7--|

|---------------|
|---------------|
|-----------2---|
|-0--2--4-4---0-|

Verse

|------------|-----------|------------|-------------|
|------------|-----------|----------7-|-4-----------|
|-------7--7-|-------7---|-------7----|-------------|
|-5----------|-5---------|-5----------|------7-7--7-|

|-------------|------------|-----------|-------------| *these two eighths are dotted
|-----------9-|------------|-----------|-------------|
|-7----7-7----|-----7-4----|------7--7-|------7-7*-7-|
|-------------|----------5-|-----------|-5-----------|

|------------|-------------|-------------|---------------|
|----------7-|-4-----------|-------------|---------------|
|-------7----|-------------|-7----7-7--7-|-----------2---|
|-5----------|------7-7--7-|-------------|-0--2--4-4---4-|

|-------------|-------------|-----4-2---2-|-1---1-------|
|-------------|-------------|-------------|-------4-----|
|-4----4-4----|-------------|-2-----------|-------------|
|-----------4-|-2----2-2--2-|-------------|-----------7-|

|----------/9-|---\------|
|--------9----|----------|
|-7----7------|----------|
|-------------|--------5-|

Chorus
[ Tab from: http://www.guitartabs.cc/tabs/a/ambrosia/how_much_i_feel_btab.html ]
|--------------|--9---8--------|---------------|---------------|
|---7\---------|---------------|---7\----------|---------------|
|-------2-2--7-|----6---4-4----|-------2-2--24-|-----------2---|
|--------------|-------------5-|---------------|-0--2--4-4-----|

|--------------|---6\---------|---------------|--6-6\--4-4----|
|----7--64-----|--------------|---------------|---------------|
|---------7--4-|-------2-2----|-------------4-|---------------|
|-5------------|------------2-|--0-2-224-4----|-------------2-|

|--------------|
|--------------|
|--------------|
|--0-2--4-4----|

Bridge (7/4)

|---------------------|-----6----42--------------|
|---------------------|---6---6----4--x-6--------|
|-4------2------------|-4------------------------|
|-----4----2---4---4--|--------------------2-4---|

|---------------------|-----6-------------------|
|---------------------|---6---6--6-4--x-6-------|
|-4------2------------|-4-----------------------|
|-----4----2---4---4--|--------------------2-4--|

|---------------------|-----6--------------------|
|---------------------|---6---6--6-4--x-6--------|
|-4------2------------|-4------------------------|
|-----4----2---4---4--|--------------------22-4--|

(Back to 4/4)

|-------------|-------------|--------------|-----------------|
|-------------|-------------|--------------|---6-------------|
|------7-7--7-|------7-7----|------6-6--66-|-----1-1-2-2-3-3-|
|-5-----------|-5---------5-|-4------------|-4---------------|

|-----6-6--6--|-----555-----|-----4-4-----|---------------|
|-------------|-------------|-------------|---------------|
|-4-----------|-3---------3-|-2--------2--|-1-------------|
|-------------|-------------|-------------|------5-4-3-2--|

|--------------|--6-6\---------|-------------|----2--------|
|--------------|---------------|-------------|--24---242---|
|------------4-|--------2-2----|-------------|-------------|
|--0-2--4-4----|-------------2-|--0-2--4-4---|-------------|

|---------|---9---8---6-----|---------------|
|---------|-----------------|---------------|
|---------|-7---6---4-------|-----------2---|
|---------|-------------7-7-|-0--2--4-4---0-|

Verse

|------------|------------|------------|--------------|
|------------|------------|---------76-|-4------------|
|-------7--7-|-------7----|------------|--------------|
|-5----------|-5--------0-|-5----------|------7-7--7--|

|-------------|------------|------------|--------------| *two dotted eighths
|-----------9-|------------|------------|-----------4--|
|-7----7-7----|-----7-4----|-----7-7----|------7-7*----|
|-------------|----------5-|----------0-|-5------------|

|-------------|-------------|---------------|-----------------|
|-------------|-4-----------|---------------|-----------------|
|------7-7--7-|-------------|-7-x-6--4------|-----------2-33--|
|-5-----------|------7-7--7-|-----------7-7-|-0--2--4-4-------|

|-------------|-------------|-----4-2---2-|-1---11-------|
|-------------|-------------|-------------|-------4------|
|-4----4-4----|-------------|-2-----------|--------------|
|-----------4-|-2----2-2--2-|-------------|-----------7--|

|----------9---|----------|
|--------9-----|----------|
|-7----7-----7-|---\------|
|--------------|--------5-|

Chorus

|--------------|---9---8---6-----|---------------|---------------|
|---7\---------|-----------------|---7\----------|---------------|
|-------2-2--4-|-7---6---4-------|-------2-2--24-|-----------2---|
|--------------|-------------7-5-|---------------|-0--2--4-4-----|

|--------------|--6-6\---------*|
|----7--64-----|---------------*|
|---------7--4-|--------2-2----*|
|-5------------|-------------2-*| Fade out
Comments