Amber Pacific - Gone So Young Chords & Tabs

 

Gone So Young Chords & Tabs

Amber Pacific Chords & Tabs

Version: 1 Type: Bass Tab 0 ratings
1 star 2 stars 3 stars 4 stars 5 stars
comments

Gone So Young Bass Tab

Band: Amber Pacific
Song: Gone So Young
By: imnopunkrocker
Standard Tuning
I'm 100% sure this is right so i want good ratings (no jokes please)

Intro 2x                                                                2nd
|-----------------------------------------------------------------------|---|
|-----------------------------------------------------------------------|---|
|-2-2-2-22-22-2222------------------------------------------------------|-2~|
|------------------2-2-2-22-22-2222--0-0-0-00-00-0000--2-2-2-22-22-2222-|---|

Verse 1 (Those are 11's)
|--------------------------------------|
|------------99------1111-------1111---|
|----66---77---7--99------9--99-----9--|
|-44---4-------------------------------|

Verse 1 Continued 2x                    1st        2nd
|---------------------------------------|----------|-------------|
|-----------------9-----9------4----4---|----------|-------------|
|----2-----2---77---777---7-22---222--2-|----------|-------------|
|-44---444---4--------------------------|-22222222-|-22222222-0~-|

Chorus 
|------------------------------------------------------------------------|
|------------------------------------------------------------------------|
|-2-2-2-22-22-2222-------------------------------------------------------|
|------------------2-2-2-22-22-2222--4-4-4-44-44-4444--0-0-0-00-00-0000--|

Chorus Continued
|---------------------------------------------------------|
|---------------------------------------------------------|
|-2-2-2-22-22-2222----------------------------------------|
|------------------2-2-2-22-22-2222--0-0-0-00-00-0000--2~-|

Post Chorus 2x
|-----------|
|-----------|
|-----------|
|-4444-4444-|
[ Tab from: http://www.guitartabs.cc/tabs/a/amber_pacific/gone_so_young_btab.html ]
Verse 2
|----------------------6--------------------------|
|----6----8-6--8h9-4-----8---6-4----8-6--6---6----|
|--6-----------9---------------------------8---8--|
|------4-------------------------4----------------|

Verse 2 Continued
|------------------------------------------|
|------------------------------------------|
|------------2-8x--------------------------|
|-4-8x--0-8x------2-8x--4-8x--0-8x--2-16x--|

Chorus

Bridge
|----------------------------------------|
|----------------------------------------|
|----------------------------------------|
|--44-44--00-00---44-44--00-00---444-2~--|

Rest 4 chord changes

Gradually get louder
|------------------------|
|------------------------|
|-2-8x-------------------|
|------2-8x--0-8x--2-4x--|

Chorus 
|---------------------------------------------|
|---------------------------------------------|
|-2222-2222-----------------------------------|
|------------2222-2222--4444-4444--0000-0000--|

Chorus Continued
|--------------------------------------------|
|--------------------------------------------|
|-2222-2222----------------------------------|
|-----------2222-2222--0000-0000--2222-2222--|
 
|---------------------------------------------|
|---------------------------------------------|
|-2222-2222-----------------------------------|
|------------2222-2222--4444-4444--0000-0000--|

|---------------------------------------------|
|---------------------------------------------|
|-2222-2222---------------------------2~---2--|
|-----------2222-2222--0000-0000--2~----------|

Steal this and I'll hunt you down and kill you and nobody wants that because its too
much work and work is bad.  Spread the word.
Comments