Amazing Transparent Man - Unfamiliar Ceiling Chords & Tabs

 

Unfamiliar Ceiling Chords & Tabs

Amazing Transparent Man Chords & Tabs

Version: 1 Type: Tab 0 ratings
1 star 2 stars 3 stars 4 stars 5 stars
comments

Unfamiliar Ceiling Tab

Band: Amazing Transparent Man
Song: Unfamiliar Ceiling
Tuning: Standard
Tabbed by: TheMutts (halo2k@forerunners.org)

... = palm mute

note: super easy song!
////////////////////////////////////////////////////////////////////////////

 Intro
|----------------------------------|
|----------------------------------|
|-----------------7-7-7-7--9-9-9-9-|
|-77-777-777-777--7-7-7-7--9-9-9-9-|
|-77-777-777-777--5-5-5-5--7-7-7-7-|
|-55-555-555-555-------------------|

 Verse Pt.1
|-----------------------------------|
|-----------------------------------|
|-----------------------------------|
|-777777777777777-11111111111111111-|
|-777777777777777-11111111111111111-|
|-555555555555555-9-9-9-9-9-9-9-9-9-|
    ............... .................
|-------------------------------------|
|-------------------------------------|
|-11111111111111111111111111111111----|
|-11111111111111111111111111111111----|
|-9-9-9-9-9-9-9-9-9-9-9-9-9-9-9-9-----|
|-------------------------------------|
    ................................
|---------------------------|
|---------------------------|
|-4-4-4-4-4-4--7-7-7-7-7-7--|
|-4-4-4-4-4-4--7-7-7-7-7-7--|
|-2-2-2-2-2-2--5-5-5-5-5-5--|
|---------------------------|
      . . . . .    . . . . .
[ Tab from: http://www.guitartabs.cc/tabs/a/amazing_transparent_man/unfamiliar_ceiling_tab.html ]
 Verse Pt.2
|---------------------------------|
|---------------------------------|
|-----------------66-666-666-666--|
|-77-777-777-777--66-666-666-666--|
|-77-777-777-777--44-444-444-444--|
|-55-555-555-555------------------|
|----------------------------|
|----------------------------|
|-1111-111111-111111-111111--|
|-1111-111111-111111-111111--|
|-9-9--9-9-9--9-9-9--9-9-9---|
|----------------------------|
|------------------------|
|------------------------|
|-4-4-4-44--7-7-7-7-7-9--|
|-4-4-4-44--7-7-7-7-7-9--|
|-2-2-2-22--5-5-5-5-5-7--|
|------------------------|


 Chorus
|-------------------------------------|
|-------------------------------------|
|-------------------9999999999999999--|
|-7777777777777777--9999999999999999--|
|-7777777777777777--7777777777777777--|
|-5555555555555555--------------------|
|-----------------------------------|
|-----------------------------------|
|-77777777777777777777777777777777--|
|-77777777777777777777777777777777--|
|-55555555555555555555555555555555--|
|-----------------------------------|

Bridge
|----------------------------------|
|----------------------------------|
|-77777777777777-5---------------9-|
|-77777777777777-5-7777777777777-9-|
|-55555555555555-3-7777777777777-7-|
|------------------5555555555555---|
|------------------|
|------------------|
|-9999999999999-77-|
|-9999999999999-77-|
|-7777777777777-55-|
|------------------|


Full album coming soon!
Comments