Amazing Transparent Man - Ocean Is A Fuck Of A Long Way To Swim Chords & Tabs

 

Ocean Is A Fuck Of A Long Way To Swim Chords & Tabs

Amazing Transparent Man Chords & Tabs

Version: 1 Type: Tab 0 ratings
1 star 2 stars 3 stars 4 stars 5 stars
comments

Ocean Is A Fuck Of A Long Way To Swim Tab

Band: Amazing Transparent Man
Song: The Ocean Is A Fuck Of A Long Way To Swim

Tuning: Standard


Intro/Main Riff
e|-------------------------------------------------------------------------|
B|-------------------------------------------------------------------------|
G|-------------------------------------------------------------------------|
D|-66666x66x666------------------------------------------------------------|
A|-66666x66x666------------------------------------------------------------|
E|-44444x44x444------------------------------------------------------------|


Verse Chords       End Verse/Chorus
e|--------------|----------------------------------------------------------|
B|--------------|----------------------------------------------------------|
G|--------------|----------------------------------------------------------|
D|-10--6--8--6--|--8--------10---------------------------------------------|
A|-10--6--8--6--|--8888888--10101010101010---------------------------------|
E|-8---4--6--4--|--6666666--8-8-8-8-8-8-8----------------------------------|
                    ......    ............
[ Tab from: http://www.guitartabs.cc/tabs/a/amazing_transparent_man/ocean_is_a_fuck_of_a_long_way_to_swim_tab.html ]
Chorus Chords
e|-------------------------------------------------------------------------|
B|-------------------------------------------------------------------------|
G|-------------------------------------------------------------------------|
D|--10---2---4---6---8---6-------------------------------------------------|
A|--10---2---4---6---8---6-------------------------------------------------|
E|--8----0---2---4---6---4-------------------------------------------------|


Bridge Chords (play each chord once, then the play it repeatly palm muted
               but minus the D -string, [ex:D--10       10------------
                                            A--10       101010101010--
                                            E--8  means 8 8 8 8 8 8---
                                                          .........

e|-------------------------------------------------------------------------|
B|-------------------------------------------------------------------------|
G|-------------------------------------------------------------------------|
D|-10---6---8---6----------------------------------------------------------|
A|-10---6---8---6----------------------------------------------------------|
E|-8----4---6---4----------------------------------------------------------|






Key

x = mute strings using hand on the frets
... = pm
Comments