Aly And Aj - Something More Chords & Tabs

 

Something More Chords & Tabs

Aly And Aj Chords & Tabs

Version: 1 Type: Tab 0 ratings
1 star 2 stars 3 stars 4 stars 5 stars
comments

Something More Tab

I did this song really quickly. I go in random order to tab out a song from Into the 
It just depends on my mood, so this was the song today. There might be some mistakes, feel 
to correct. Please comment, it only makes me a better tabber. Questions/comments,
email me at sportsfr3ak549@yahoo.com

Capo 2

Verse 1/Riff:

--------0-----------0---------------------------0-----------------------|
------3-----------3------------3-------------3-----3--------------------|
----2-----------------------0-------------2-----------------------------|
--0------------2----------0-------------0-------------------------------|
-------------3----------------------------------------------------------|
------------------------3-----------------------------------------------|

[ Tab from: http://www.guitartabs.cc/tabs/a/aly_and_aj/something_more_tab.html ]
Chorus:
-----------------------------------------------------|
-----------------------------------------------------|
-----------5-----------------------------------------|    listen to song for rhythm
--7--------5---------5-------------------------------|
--7--------3---------5-------------------------------|
--5------------------3-------------------------------|


Verse 2:
---0---------3---------3----------0---------------------------|
---3---------3---------3----------3---------------------------|
---2---------0---------0----------2---------------------------|
---0---------2---------0----------0---------------------------|
-------------3---------x--------------------------------------|
-----------------------3--------------------------------------|


Bridge:
-------------------------------------------|
-------------------------------------------|
-------5---------7-------------------------|(x2)
---2---5----5----7-------------------------|
---2---3----5----5-------------------------|
---0--------3------------------------------|
Comments