Alter Bridge - Watch Your Words Chords & Tabs

 

Watch Your Words Chords & Tabs

Alter Bridge Chords & Tabs

Version: 2 Type: Tab 0 ratings
1 star 2 stars 3 stars 4 stars 5 stars
comments

Watch Your Words Tab

   
Tabbed by: Stephen (Harry) Harrison
Email: HarrySound@hotmail.com
[ Tab from: http://www.guitartabs.cc/tabs/a/alter_bridge/watch_your_words_tab_ver_2.html ]
Drop D
Main Riff/Intro
Eb------------------------------------------------------------------------|
Bb------------------------------------------------------------------------|
Gb------------------------------------------------------------------------|
Db--------------------------------13-13-13-12-13-----8-8-8-10-8-----------|
Ab---------6-5-6----8-10-6-5------------------------------------8-10-6----|
Db------0--------0-----------0-0-----------------0------------------------|
                                  |triplet|         |triplet|
Eb-------------------------------------------------------------------------|
Bb-------------------------------------------------------------------------|
Gb-------------------------------------------------------------------------|
Db-0---0-0-0--0--6------5h6-0---0-0-0--0--6------5h6-1-/\--5-/\-12-12-12-10|
Ab-0---0-0-0--0--6------5h6-0---0-0-0--0--6------5h6-1-/\--5-/\-8--8--8--8-|
Db-0---0-0-0--0--6--0-0-5h6-0---0-0-0--0--6--0-0-5h6-1-/\--5-/\-8--8--8--8-|
       PM------|    PM-|        PM------|    PM-|     

-Strumed electric goes here (ill be back ;) )

Chorus - "i can wait...."
Eb-------------------------------------------------------------------------|
Bb-------------------------------------------------------------------------|
Gb---------------5--5----------------7-----10-9-7----7----------------5b6b5|
Db-3--3-3-3-3-3--5--5--5-5-5-5--0--0---0-0-0------10----0--5b6b5--3-0------|
Ab-3--3-3-3-3-3--3--3--5-5-5-5--0--0-5-0-0--------------0------------------|
Db-3--3-3-3-3-3--------5-5-5-5--0--0---0-0--------------0------------------|
Comments