Alter Bridge - Watch Your Words Chords & Tabs

 

Watch Your Words Chords & Tabs

Alter Bridge Chords & Tabs

Version: 1 Type: Tab 0 ratings
1 star 2 stars 3 stars 4 stars 5 stars
comments

Watch Your Words Tab

WATCH YOUR WORDS-ALTER BRIDGE        #Tune Down 1/2 Drop-D#

Tabbed by-Todd R.
Email-Rocket105hotmail.com    If you Got Corrections yell at me. Rock on!
[ Tab from: http://www.guitartabs.cc/tabs/a/alter_bridge/watch_your_words_tab.html ]
E--------------------------------------------------------------|
B--------------------------------------------------------------|
G--------------------------------------------------------------|
D--------------------------------13-12-13----8-10-8------------|
A---------6-5-6----8-10-6-5-------------------------8-10-6-----|
D------0--------0-----------0-0-----------0--------------------|
        2x

E--------------------------------------------------------------|
B--------------------------------------------------------------|
G--------------------------------------------------------------|
D--0-x-0-0-0-x-65----1-x--555-888------------------------------|
A--0-x-0-0-0-x-65----1-x--555-888------------------------------|
D--0-x-0-0-0-x-65----1-x--555-888------------------------------|
Comments