Alter Bridge - Save Me Chords & Tabs

 

Save Me Chords & Tabs

Alter Bridge Chords & Tabs

Version: 1 Type: Bass Tab 0 ratings
1 star 2 stars 3 stars 4 stars 5 stars
comments

Save Me Bass Tab

   
Band- Alter Bridge
Song- Save Me

TUNING:E,A,D,G

INTRO
G)-------------------------------------------------------------------------------------------|I
D)-------------------------------------------------------------------------------------------|I
A)---7-0-0--7-0-0--7-0--7-----7-----7---7-0-0--7-0-0--7-0-0----7-----7-----7-----------------|I
E)-----------------------5-5---5-5---5--------------------------5-5---5-5---5-------------I--| x1

VERSE
G)------------------------------------------------------------------|I
D)------------------------------------------------------------------|I
A)--2-2-0-0--4-4-0-0--000---1-1-0-0--3-3-0-0--000-------------------|I
E)---------------------------------------------------------------I--| x4
[ Tab from: http://www.guitartabs.cc/tabs/a/alter_bridge/save_me_btab.html ]
CHORUS
G)----------------------------------------------------------------|I
D)----------------------------------------------------------------|I
A)-5-5-5-5-5-0-0-0-2-2-5-5-5-5-5-5-0-0-0-0-2-2--------------------|I
E)----------------------------------------------------------------|I

BRIDGE
G)-------------------------------------------------------------------------------------------------------------|
D)-------------------------------------------------------------------------------------------------------------|
A)-------------------------------------------------------------------------------------------------------------|
E)---5~~~~~-3~~~~~-5~~~~-3-4-3-4-3434--5-5-5555-3-3-3333-5-5-5555-3-3-3333-5-5-5555-3-3-3333-5-5-5555-3-33333--|

G)-------------------------------------------------------------------------------------------------|I
D)-------------------------------------------------------------------------------------------------|I
A)-------------------------------------------------------------------------------------------------|I
E)---333333333333--5-5-5-5-5-5-5-0-5--2-2-2-2-2-2-2-0-2--5-5-5-5-5-5-5-0-5--2-2-2-2-2-2-2-0-2------|I


ORDER:
INTRO,
VERSE,
CHORUS,
INTRO,
VERSE,
CHORUS x2
BRIDGE,
CHORUS,x2
INTRO,
Comments