Alter Bridge - Open Your Eyes Chords & Tabs

 

Open Your Eyes Chords & Tabs

Alter Bridge Chords & Tabs

Version: 5 Type: Tab 0 ratings
1 star 2 stars 3 stars 4 stars 5 stars
comments

Open Your Eyes Tab

Guitarist Mark Tremonti

D--------------------------------------------------------------------------|
D-12V-----12\------14v-----14\------16---14h16-(16)b---(16)v---16--17-17h19|
A--------------------------------------------------------------------------|
D--------------------------------------------------------------------------|
A--------------------------------------------------------------------------|
D--------------------------------------------------------------------------|

D--------------------------------------------------------------------------|
D---0---17h21p17p0--17v----------------------------17\---/16----16---------|
A--------------------------------------------------------------------------|
D--------------------------------------------------------------------------|
A--------------------------------------------------------------------------|
D--------------------------------------------------------------------------|
[ Tab from: http://www.guitartabs.cc/tabs/a/alter_bridge/open_your_eyes_tab_ver_5.html ]
D--------------------------------------------------------------------------|
D1916------161916------161716------161716--161916--162116------162116------|
A----171617------171617------171617------17------17------171617------171617|
D--------------------------------------------------------------------------|
A--------------------------------------------------------------------------|
D--------------------------------------------------------------------------|

D--------------------------------------------------------------------------|
D141614------141614------1416\---------------------------------------------|
A------171617------171617------/16-171719191716172121171617191917----------|
D----------------------------------------------------------------1919161719|
A--------------------------------------------------------------------------|
D--------------------------------------------------------------------------|

D--------------------------------------------------------------------------|
D--------------------------------191716------------------------------------|
A16171919171617212117161717v-1716------191716191716------191716------------|
D--------------------------------------------------191716------191716191716|
A--------------------------------------------------------------------------|
D--------------------------------------------------------------------------|

D-------------------------------------------------------------------------|Repeat the bend 4 times
D---------------------------------------19----------------------------22--|B\
A-17------------------16-19-16-17--16-17--16-17---16-17-19-16v-(16)\------|
D---0017\9/---16-19-17-----------19-------------19------------------0-----|
A----------/17------------------------------------------------------0-----|
D-------------------------------------------------------------------------|
Comments