Alter Bridge - Open Your Eyes Chords & Tabs

 

Open Your Eyes Chords & Tabs

Alter Bridge Chords & Tabs

Version: 4 Type: Tab 0 ratings
1 star 2 stars 3 stars 4 stars 5 stars
comments

Open Your Eyes Tab

d |----------0----0--0----0-----0--0---0-0-0---------0----0--0----0--0----|
d |----------0----0--0----0-----0--0---0-0-0---------0----0--0----0--0----|
a |--7--7----7s9--9--9s7--7s5---5--5---0-0-0--7--7---7s9--9--9s7--7--0----|
d |--0--0----0----0--0----0-----0--0---0-0-0--0--0---0----0--0----0--0----|
a |--0--0----7s9--9--9s7--7s5---5--5---0-0-0--0--0---7s9--9--9s7--7--0----|
d |--0--0----0----0--0----0-----0--0---0-0-0--0--0---0----0--0----0--0----|

  |--0----0--0--0-0--------0----0--0----0--0--0--0----0---0-0--0----0--0---|
  |--0----0--0--0-0--------0----0--0----0--0--0--7----7---0-0--0----0--0---|
  |--9s5--5--5--5-5--7-7---7s9--9--9s7--7--0--0--0----0---0-0--5s7--7--7---|
  |--0----0--0--0-0--0-0---0----0--0----0--0--0--0----0---0-0--0----0--0---|
  |--9s5--5--5--5-5--0-0---x----x--x----x--0--0--x----x---0-0--x----x--x---|
  |--0----0--0--0-0--0-0---7s9--9--9s7--7--0--0--5----5---0-0--5s7--7--7---|

  |-0--0----0-0-------------------------------------------------------------|
  |-0--0----0-0-------------------------------------------------------------|
  |-0--4s5--5-5-------------------------------------------------------------|
  |-0--x----0-0-------------------------------------------------------------|
  |-0--4s5--5-5-------------------------------------------------------------|
  |-0--0----0-0--0--0-------------------------------------------------------|

SOLO

  |------------------------------------------------------------------------|
  |-----------12~~~~12--------------14~~~~~~s16--14h16br~~~~17s19~~~-------|
  |------------------------------------------------------------------------|
  |------------------------------------------------------------------------|
  |-0-0-0-----------------0-0-0--------------------------------------------|
  |-0-0-0-----------------0-0-0--------------------------------------------|

     p.m.                 p.m.

  |-------------------------------------------------------------------------|
  |-0-17h21p17p0-17~~~~~~~~~17---16-16--19-16----------16-19-16-------------|
  |-------------------------------------------17-16-17----------17-16-17----|
  |-------------------------------------------------------------------------|
  |-------------------------------------------------------------------------|
  |-------------------------------------------------------------------------|
[ Tab from: http://www.guitartabs.cc/tabs/a/alter_bridge/open_your_eyes_tab_ver_4.html ]
  |------------------------------------------------------------------------|
  |-16-17-16----------16-17-16------------16-17-16----16-19-16----16-21-16-|
  |----------17-16-17-----------17-16-17-----------17----------17----------|
  |------------------------------------------------------------------------|
  |------------------------------------------------------------------------|
  |------------------------------------------------------------------------|


  |-------------------------------------------------------------------------|
  |----------16-21-16-------------16----------------16-----------------16---|
  |-17-16-17----------17-16-17-19----19-17-16-17-19-----19-17-16-17-19------|
  |-------------------------------------------------------------------------|
  |-------------------------------------------------------------------------|
  |-------------------------------------------------------------------------|

  |------------------------------------------------------------------------|
  |------------------------------------------------------------------------|
  |--------16-17-17-20-20-17-16-17-21-21-17-16-17-19-19-17-----------------|
  |-12s17--------------------------------------------------19-19-16-16-19--|
  |------------------------------------------------------------------------|
  |------------------------------------------------------------------------|


  |--------------------------------------------------------------------------|
  |----------------------------------------------------19-17-16--------------|
  |-16-17-19-19-17-16-17-20-20-17-16-17-17~~~~~~17--16----------19-17-16-19--|
  |--------------------------------------------------------------------------|
  |--------------------------------------------------------------------------|
  |--------------------------------------------------------------------------|

  |--------------------------------------------------------------------------|
  |--------------------------------------------------------------------------|
  |-17-16----------19-17-16--------------------------------------------------|
  |-------19-17-16----------19-17-16-19-17-19-19-0-0-------------------------|
  |--------------------------------------------------17--9s17----------------|
  |--------------------------------------------------------------------------|

  |--------------------------------------------------------------22b22-------|brbrb
  |----------------------------------19--------------------------------------|
  |-------------16-19-16-17----16-17----16-17----16-17-19-16~~~~~------------|
  |----16-19-17-------------19----------------19-----------------------------|
  |-17-----------------------------------------------------------------------|
  |--------------------------------------------------------------------------|
Comments