Alter Bridge - Open Your Eyes Chords & Tabs

 

Open Your Eyes Chords & Tabs

Alter Bridge Chords & Tabs

Version: 1 Type: Bass Tab 0 ratings
1 star 2 stars 3 stars 4 stars 5 stars
comments

Open Your Eyes Bass Tab

Tuning dadadd

This is a great song and i love it, note if you want to play intro on a string its A|7h9-9-7-5-5

Opening

G|--------------------------------||
D|-2h4-4-2-0-0----2h4-4-2-0-0-----||
A|--------------------------------||
D|-------------0--------------0---||


G|--------------------------------||
D|--------------------------------||
A|-0h2-2-0---------------------5--||
D|---------0-5-5---5h7-7-0-5-7----||  X2


Verse

G|---------------------|------------------------------||
D|---------------------|------------------------------||
A|-2-2-----------------|-2-2-----------------------5--||
D|------5-5-0-0-12-0-0-|-----5-5-9-9-5-5-7-7-0-5-7----||


G|------------------------------|------------||
D|------------------------------|------------||
A|-2-2--------------------------|-2-2--------||
D|-----5-5-0-5-0-12-0-0h12p0h12-|-----0-5-5--||

Chorus

G|-----------------------------------------------------||
D|-----------------------------------7----7----5--5----||
A|-5-5-5/4-4-5-5----------------------7----7----5--5---||
D|---------------9-9-9-9-5-5-5-5-7-7---7-7--7-5--5--5--||


G|--------------------------------||
D|--------------------------------||
A|-5-5-5/4-4-5-5------------------||
D|---------------9-9-9-9-5-5-5-5--||


G|--------------------------------||
D|-2h4-4-2-0-0----2h4-4-2-0-0-----||
A|--------------------------------||
D|-------------0--------------0---||


G|--------------------------------||
D|--------------------------------||
A|-0h2-2-0---------------------5--||
D|---------0-5-5---5h7-7-0-5-7----||


Verse

G|----------------------|------------------------------||
D|----------------------|------------------------------||
A|-2-2------------------|-2-2-----------------------5--||
D|------5-5-0-0-12-0-12-|-----5-5-9-9-5-5-7-7-0-5-7----||


G|------------------------------|------------||
D|------------------------------|------------||
A|-2-2--------------------------|-2-2--------||
D|-----5-5-0-5-0-12-0-0h12p0h12-|-----0-5-5--||


Chorus
[ Tab from: http://www.guitartabs.cc/tabs/a/alter_bridge/open_your_eyes_btab.html ]
G|-----------------------------------------------------||
D|-----------------------------------7----7----5--5----||
A|-5-5-5/4-4-5-5----------------------7----7----5--5---||
D|---------------9-9-9-9-5-5-5-5-7-7---7-7--7-5--5--5--||


G|--------------------------------||
D|--------------------------------||
A|-5-5-5/4-4-5-5------------------||
D|---------------9-9-9-9-5-5-5-5--||


G|--------------------------------||
D|-2h4-4-2-0-0----2h4-4-2-0-0-----||
A|--------------------------------||
D|-------------0--------------0---||


G|--------------------------------||
D|--------------------------------||
A|-0h2-2-0---------------------5--||
D|---------0-5-5---5h7-7-0-5-7----||

Breakdown

Rest

G|----------------------------||
D|----------------------------||
A|-2-2------------------------||
D|-----0-3-5-5-5-5-7-0-0-0-0--||

G|-------------------------------------||
D|-------------------------------------||
A|-2-2---------------------------------||
D|-----0-3-5-5-5-5--00-0--12--00-0-12--||  X2

G|----------------------------------------------||
D|----------------------------------------------||
A|-2-2-------------5-5-5\4-4-5-5----------------||
D|-----0-3-5-5-3-5---------------9-9-9-9-5-5-5--||  X 2

G|------------------||
D|------------------||
A|-2-2-2-2----------||
D|---------5-5-5-5--||

Chorus

G|---------------------------------------------------||
D|---------------------------------------------------||
A|-5-5-5/4-4-5-5-------------------------------------||
D|---------------9-9-9-9-5-5-5-5-7-7-7-7-7-5--5-5-5--||

G|-----------------------------------------------------||
D|-----------------------------------7----7----5--5----||
A|-5-5-5/4-4-5-5----------------------7----7----5--5---||
D|---------------9-9-9-9-5-5-5-5-7-7---7-7--7-5--5--5--||

G|--------------------------||
D|--------------------------||
A|-5-5-5/4-4-5-5------------||
D|---------------9-9-9-9-5--||


Ending

G|--------------------------------||
D|-2h4-4-2-0-0----2h4-4-2-0-0-----||
A|--------------------------------||
D|-------------0--------------0---||

G|--------------------------------||
D|--------------------------------||
A|-0h2-2-0---------------------5--||
D|---------0-5-5---5h7-7-0-5-7----||

G|------------------------------||
D|------------------------------||
A|-2-2-2-2-------------------5--||
D|---------5-5-5-5-7-7-0-5-7----||
my second tab, hope ya like it, Devon Scruggs
Comments