Alter Bridge - One Day Remains Chords & Tabs

 

One Day Remains Chords & Tabs

Alter Bridge Chords & Tabs

Version: 5 Type: Tab 0 ratings
1 star 2 stars 3 stars 4 stars 5 stars
comments

One Day Remains Tab

Standard Tuning: EADGBe
========
Key
========
*  : Harmonic (Natural)
^  : Bend
PM : Palm Mute
h  : Hammer On
p  : Pick off
========

Introduction

e|-------------------|
B|-------------------|
G|-------------------|
D|-------------------|
A|--0--12*--5*--12*--|
E|--------------12*--|

e|-------------------------------------------|
B|-------------------------------------------|
G|--14--9--4^5^4--14--9--4-------------------|
D|------------------------------Pick-Scrape--|
A|--12--7--2^3^2--12--7--2------Pick-Scrape--|
E|------------------------------Pick-Scrape--|

e|---------------------------------------------------------------------------------------|
B|---------------------------------------------------------------------------------------|
G|---------------------------------------------------------------------------------------|
D|----4-----4-----4---2---2-----2-----2---1---1-2-1--------------------------------------|
A|--2---2-2---2-2---2---2---2-2---2-2---2---2-------2-0-2-6-2-0-2-6-2-0-2-6-2-0-2-6-2-0--|
E|---------------------------------------------------------------------------------------|

e|---------------------------------------------------------------------------------------|
B|---------------------------------------------------------------------------------------|
G|---------------------------------------------------------------------------------------|
D|----4-----4-----4---2---2-----2-----2---1---1-2-1--------------------------------------|
A|--2---2-2---2-2---2---2---2-2---2-2---2---2-------2-0-2-6-2-0-2-6-2-0-2-6-2-0-2-6-2-0--|
E|---------------------------------------------------------------------------------------|

Verse

   PM----------------------------------------------------------------------------------|
e|---------------------------------------------------------------------------------------|
B|---------------------------------------------------------------------------------------|
G|---------------------------------------------------------------------------------------|
D|----4-----4-----4---2---2-----2-----2---1---1-2-1--------------------------------------|
A|--2---2-2---2-2---2---2---2-2---2-2---2---2-------2-0-2-6-2-0-2-6-2-0-2-6-2-0-2-6-2-0--|
E|---------------------------------------------------------------------------------------|
 
    PM--------------------------------------------------------------------------------|
e|---------------------------------------------------------------------------------------|
B|---------------------------------------------------------------------------------------|
G|---------------------------------------------------------------------------------------|
D|----4-----4-----4---2---2-----2-----2---1---1-2-1--------------------------------------|
A|--2---2-2---2-2---2---2---2-2---2-2---2---2-------2-0-2-6-2-0-2-6-2-0-2-6-2-0-2-6-2-0--|
E|---------------------------------------------------------------------------------------|

    PM--------------------------------------------------------------------------------|
e|---------------------------------------------------------------------------------------|
B|---------------------------------------------------------------------------------------|
G|---------------------------------------------------------------------------------------|
D|----4-----4-----4---2---2-----2-----2---1---1-2-1--------------------------------------|
A|--2---2-2---2-2---2---2---2-2---2-2---2---2-------2-0-2-6-2-0-2-6-2-0-2-6-2-0-2-6-2-0--|
E|---------------------------------------------------------------------------------------|

    PM--------------------------------------------|
e|---------------------------------------------------|
B|---------------------------------------------------|
G|---------------------------------------------------|
D|----4-----4-----4---2---2-----2-----2---1---1-2-1--|
A|--2---2-2---2-2---2---2---2-2---2-2---2---2--------|
E|---------------------------------------------------|

      PM----|               PM----|
e|----------------------------------------------|
B|----------------------------------------------|
G|--4-4-4-4-4-4-----------4-4-4-4-4-4-----------|
D|--4-4-4-4-4-4-----------4-4-4-4-4-4-----------|
A|--2-2-2-2-2-2--2h4p2p0--2-2-2-2-2-2--2h4p2p0--|
E|--2-2-2-2-2-2-----------2-2-2-2-2-2-----------|


Chorus

       PM----|              PM----|               PM----|               PM----|
e|------------------------------------------------------------------------------------------|
B|------------------------------------------------------------------------------------------|
G|--4-4-4-4-4-4-----------4-4-4-4-4-4-----------4-4-4-4-4-4-----------4-4-4-4-4-4-----------|
D|--2-2-2-2-2-2--2h4p2p0--4-4-4-4-4-4-----------4-4-4-4-4-4-----------4-4-4-4-4-4-----------|
A|--0-0-0-0-0-0-----------2-2-2-2-2-2--2h4p2p0--2-2-2-2-2-2--2h4p2p0--2-2-2-2-2-2--2h4p2p0--|
E|--0-0-0-0-0-0---------------------------------2-2-2-2-2-2-----------2-2-2-2-2-2-----------|

       PM----|              PM----|               PM----|               PM----|
e|------------------------------------------------------------------------------------------|
B|------------------------------------------------------------------------------------------|
G|--4-4-4-4-4-4-----------4-4-4-4-4-4-----------4-4-4-4-4-4-----------4-4-4-4-4-4-----------|
D|--2-2-2-2-2-2--2h4p2p0--4-4-4-4-4-4-----------4-4-4-4-4-4-----------4-4-4-4-4-4-----------|
A|--0-0-0-0-0-0-----------2-2-2-2-2-2--2h4p2p0--2-2-2-2-2-2--2h4p2p0--2-2-2-2-2-2--2h4p2p0--|
E|--0-0-0-0-0-0---------------------------------2-2-2-2-2-2-----------2-2-2-2-2-2-----------|

       PM----|              PM----|               PM----|               PM----|
e|------------------------------------------------------------------------------------------|
B|------------------------------------------------------------------------------------------|
G|--4-4-4-4-4-4-----------4-4-4-4-4-4-----------4-4-4-4-4-4-----------4-4-4-4-4-4-----------|
D|--2-2-2-2-2-2--2h4p2p0--4-4-4-4-4-4-----------4-4-4-4-4-4-----------4-4-4-4-4-4-----------|
A|--0-0-0-0-0-0-----------2-2-2-2-2-2--2h4p2p0--2-2-2-2-2-2--2h4p2p0--2-2-2-2-2-2--2h4p2p0--|
E|--0-0-0-0-0-0---------------------------------2-2-2-2-2-2-----------2-2-2-2-2-2-----------|

e|--------------------------------------------------|
B|--------------------------------------------------|
G|--------------------------------------------------|
D|--11--11--11--12--11------------------------------|
A|--0---0---0---0---0---12--11--11--11--12--11------|
E|--------------------------0---0---0---0---0---12--|

e|----------------------------------------------|
B|----------------------------------------------|
G|--4-4-4-4-4-4-----------4-4-4-4-4-4-----------|
D|--4-4-4-4-4-4-----------4-4-4-4-4-4-----------|
A|--2-2-2-2-2-2--2h4p2p0--2-2-2-2-2-2--2h4p2p0--|
E|--2-2-2-2-2-2-----------2-2-2-2-2-2-----------|


Interlude


e|------------------------------------------------------------------------------|
B|--10p7h9-10p7h9-10p7h9-10p9p7---------------------------4-----4-----4-----4---|
G|------------------------------9p6h8-9p6h8-9p6h8-9p8p6--4-4p2h4-4p2h4-4p2h4-4--|
D|------------------------------------------------------------------------------|
A|------------------------------------------------------------------------------|
E|------------------------------------------------------------------------------|

e|--------------------------------------------------------------------------------|
B|--10p7h9-10p7h9-10p7h9-10p9p7---------------------------4-----4-----4-----------|
G|------------------------------9p6h8-9p6h8-9p6h8-9p8p6--4-4p2h4-4p2h4-4p2h4/8\0--|
D|--------------------------------------------------------------------------------|
A|--------------------------------------------------------------------------------|
E|--------------------------------------------------------------------------------|



Verse

   PM----------------------------------------------------------------------------------|
e|---------------------------------------------------------------------------------------|
B|---------------------------------------------------------------------------------------|
G|---------------------------------------------------------------------------------------|
D|----4-----4-----4---2---2-----2-----2---1---1-2-1--------------------------------------|
A|--2---2-2---2-2---2---2---2-2---2-2---2---2-------2-0-2-6-2-0-2-6-2-0-2-6-2-0-2-6-2-0--|
E|---------------------------------------------------------------------------------------|
 
    PM--------------------------------------------------------------------------------|
e|---------------------------------------------------------------------------------------|
B|---------------------------------------------------------------------------------------|
G|---------------------------------------------------------------------------------------|
D|----4-----4-----4---2---2-----2-----2---1---1-2-1--------------------------------------|
A|--2---2-2---2-2---2---2---2-2---2-2---2---2-------2-0-2-6-2-0-2-6-2-0-2-6-2-0-2-6-2-0--|
E|---------------------------------------------------------------------------------------|

    PM--------------------------------------------------------------------------------|
e|---------------------------------------------------------------------------------------|
B|---------------------------------------------------------------------------------------|
G|---------------------------------------------------------------------------------------|
D|----4-----4-----4---2---2-----2-----2---1---1-2-1--------------------------------------|
A|--2---2-2---2-2---2---2---2-2---2-2---2---2-------2-0-2-6-2-0-2-6-2-0-2-6-2-0-2-6-2-0--|
E|---------------------------------------------------------------------------------------|

    PM--------------------------------------------|
e|---------------------------------------------------|
B|---------------------------------------------------|
G|---------------------------------------------------|
D|----4-----4-----4---2---2-----2-----2---1---1-2-1--|
A|--2---2-2---2-2---2---2---2-2---2-2---2---2--------|
E|---------------------------------------------------|
[ Tab from: http://www.guitartabs.cc/tabs/a/alter_bridge/one_day_remains_tab_ver_5.html ]
      PM----|               PM----|
e|----------------------------------------------|
B|----------------------------------------------|
G|--4-4-4-4-4-4-----------4-4-4-4-4-4-----------|
D|--4-4-4-4-4-4-----------4-4-4-4-4-4-----------|
A|--2-2-2-2-2-2--2h4p2p0--2-2-2-2-2-2--2h4p2p0--|
E|--2-2-2-2-2-2-----------2-2-2-2-2-2-----------|


Chorus

       PM----|              PM----|               PM----|               PM----|
e|------------------------------------------------------------------------------------------|
B|------------------------------------------------------------------------------------------|
G|--4-4-4-4-4-4-----------4-4-4-4-4-4-----------4-4-4-4-4-4-----------4-4-4-4-4-4-----------|
D|--2-2-2-2-2-2--2h4p2p0--4-4-4-4-4-4-----------4-4-4-4-4-4-----------4-4-4-4-4-4-----------|
A|--0-0-0-0-0-0-----------2-2-2-2-2-2--2h4p2p0--2-2-2-2-2-2--2h4p2p0--2-2-2-2-2-2--2h4p2p0--|
E|--0-0-0-0-0-0---------------------------------2-2-2-2-2-2-----------2-2-2-2-2-2-----------|

       PM----|              PM----|               PM----|               PM----|
e|------------------------------------------------------------------------------------------|
B|------------------------------------------------------------------------------------------|
G|--4-4-4-4-4-4-----------4-4-4-4-4-4-----------4-4-4-4-4-4-----------4-4-4-4-4-4-----------|
D|--2-2-2-2-2-2--2h4p2p0--4-4-4-4-4-4-----------4-4-4-4-4-4-----------4-4-4-4-4-4-----------|
A|--0-0-0-0-0-0-----------2-2-2-2-2-2--2h4p2p0--2-2-2-2-2-2--2h4p2p0--2-2-2-2-2-2--2h4p2p0--|
E|--0-0-0-0-0-0---------------------------------2-2-2-2-2-2-----------2-2-2-2-2-2-----------|

       PM----|              PM----|               PM----|               PM----|
e|------------------------------------------------------------------------------------------|
B|------------------------------------------------------------------------------------------|
G|--4-4-4-4-4-4-----------4-4-4-4-4-4-----------4-4-4-4-4-4-----------4-4-4-4-4-4-----------|
D|--2-2-2-2-2-2--2h4p2p0--4-4-4-4-4-4-----------4-4-4-4-4-4-----------4-4-4-4-4-4-----------|
A|--0-0-0-0-0-0-----------2-2-2-2-2-2--2h4p2p0--2-2-2-2-2-2--2h4p2p0--2-2-2-2-2-2--2h4p2p0--|
E|--0-0-0-0-0-0---------------------------------2-2-2-2-2-2-----------2-2-2-2-2-2-----------|

e|--------------------------------------------------|
B|--------------------------------------------------|
G|--------------------------------------------------|
D|--11--11--11--12--11------------------------------|
A|--0---0---0---0---0---12--11--11--11--12--11------|
E|--------------------------0---0---0---0---0---12--|

e|----------------------------------------------|
B|----------------------------------------------|
G|--4-4-4-4-4-4-----------4-4-4-4-4-4-----------|
D|--4-4-4-4-4-4-----------4-4-4-4-4-4-----------|
A|--2-2-2-2-2-2--2h4p2p0--2-2-2-2-2-2--2h4p2p0--|
E|--2-2-2-2-2-2-----------2-2-2-2-2-2-----------|


Solo:

e|--------------------------------------------------------------------------------------------|
B|--0-12-16-12-16-12-0-12-------------------------0-12-16-12-16-12-0-12-----------------------|
G|------------------------14-13-14-13-14-16-14-16-----------------------14-13-14-13-14-16-16~-|
D|--------------------------------------------------------------------------------------------|
A|--------------------------------------------------------------------------------------------|
E|--------------------------------------------------------------------------------------------|

e|-------------------------------------------------------------------------------------14-----|
B|--0-12-16-12-16-12-0-12-----------------------0-12-16-12-16-12-0-12-17-12-17-12-0-12----12--|
G|------------------------14-13-14-13-14-16-16~-----------------------------------------------|
D|--------------------------------------------------------------------------------------------|
A|--------------------------------------------------------------------------------------------|
E|--------------------------------------------------------------------------------------------|

e|--14-------------------------------------------21----21----------------21----21----------21----|
B|-----12-0-12-17-12-17-12-0-12-16-12-16-12-0-12----21----21-16-21-16-21----21----21-16-21----21-|
G|-----------------------------------------------------------------------------------------------|
D|-----------------------------------------------------------------------------------------------|
A|-----------------------------------------------------------------------------------------------|
E|-----------------------------------------------------------------------------------------------|

e|--21----------21------16~~~~---14~~~~~----------------------------------------------------|
B|-----21-16-21----21-----------------------------------------------------------------------|
G|------------------------------------------------------------------------------------------|
D|------------------------------------------------------------------------------------------|
A|------------------------------------------------------------------------------------------|
E|------------------------------------------------------------------------------------------|


Last Chorus:

e|--------------------------------------------------|
B|--------------------------------------------------|
G|--------------------------------------------------|
D|--11--11--11--12--11------------------------------|
A|--0---0---0---0---0---12--11--11--11--12--11------|
E|--------------------------0---0---0---0---0---12--|

e|----------------------------------------------|
B|----------------------------------------------|
G|--4-4-4-4-4-4-----------4-4-4-4-4-4-----------|
D|--4-4-4-4-4-4-----------4-4-4-4-4-4-----------|
A|--2-2-2-2-2-2--2h4p2p0--2-2-2-2-2-2--2h4p2p0--|
E|--2-2-2-2-2-2-----------2-2-2-2-2-2-----------|

e|--------------------------------------------------|
B|--------------------------------------------------|
G|--------------------------------------------------|
D|--11--11--11--12--11------------------------------|
A|--0---0---0---0---0---12--11--11--11--12--11------|
E|--------------------------0---0---0---0---0---12--|

e|----------------------------------------------|
B|----------------------------------------------|
G|--4-4-4-4-4-4-----------4-4-4-4-4-4-----------|
D|--4-4-4-4-4-4-----------4-4-4-4-4-4-----------|
A|--2-2-2-2-2-2--2h4p2p0--2-2-2-2-2-2--2h4p2p0--|
E|--2-2-2-2-2-2-----------2-2-2-2-2-2-----------|

e|--------------------------------------------------|
B|---------------------17---------------------------|
G|--------------------------------------------------|
D|--11--11--11--12--11------------------------------|
A|--0---0---0---0---0-----11--11--11--12--11--------|
E|------------------------0---0---0---0---0---12----|

e|----------------------------------------------|
B|----------------------------------------------|
G|--4-4-4-4-4-4-----------4-4-4-4-4-4-----------|
D|--4-4-4-4-4-4-----------4-4-4-4-4-4-----------|
A|--2-2-2-2-2-2--2h4p2p0--2-2-2-2-2-2--2h4p2p0--|
E|--2-2-2-2-2-2-----------2-2-2-2-2-2-----------|

e|--------------------------------------------------|
B|--------------------------------------------------|
G|--------------------------------------------------|
D|--11--11--11--12--11------------------------------|
A|--0---0---0---0---0---12--11--11--11--12--11------|
E|--------------------------0---0---0---0---0---12--|

e|----------------------------------------------|
B|----------------------------------------------|
G|--4-4-4-4-4-4-----------4-4-4-4-4-4-----------|
D|--4-4-4-4-4-4-----------4-4-4-4-4-4-----------|
A|--2-2-2-2-2-2--2h4p2p0--2-2-2-2-2-2--2h4p2p0--|
E|--2-2-2-2-2-2-----------2-2-2-2-2-2-----------|

       PM----|              PM----|               PM----|               PM----|
e|------------------------------------------------------------------------------------------|
B|------------------------------------------------------------------------------------------|
G|--4-4-4-4-4-4-----------4-4-4-4-4-4-----------4-4-4-4-4-4-----------4-4-4-4-4-4-----------|
D|--2-2-2-2-2-2--2h4p2p0--4-4-4-4-4-4-----------4-4-4-4-4-4-----------4-4-4-4-4-4-----------|
A|--0-0-0-0-0-0-----------2-2-2-2-2-2--2h4p2p0--2-2-2-2-2-2--2h4p2p0--2-2-2-2-2-2--2h4p2p0--|
E|--0-0-0-0-0-0---------------------------------2-2-2-2-2-2-----------2-2-2-2-2-2-----------|

       PM----|              PM----|               PM----|               PM----|
e|------------------------------------------------------------------------------------------|
B|------------------------------------------------------------------------------------------|
G|--4-4-4-4-4-4-----------4-4-4-4-4-4-----------4-4-4-4-4-4-----------4-4-4-4-4-4-----------|
D|--2-2-2-2-2-2--2h4p2p0--4-4-4-4-4-4-----------4-4-4-4-4-4-----------4-4-4-4-4-4-----------|
A|--0-0-0-0-0-0-----------2-2-2-2-2-2--2h4p2p0--2-2-2-2-2-2--2h4p2p0--2-2-2-2-2-2--2h4p2p0--|
E|--0-0-0-0-0-0---------------------------------2-2-2-2-2-2-----------2-2-2-2-2-2-----------|

       PM----|              PM----|               PM----|               PM----|
e|------------------------------------------------------------------------------------------|
B|------------------------------------------------------------------------------------------|
G|--4-4-4-4-4-4-----------4-4-4-4-4-4-----------4-4-4-4-4-4-----------4-4-4-4-4-4-----------|
D|--2-2-2-2-2-2--2h4p2p0--4-4-4-4-4-4-----------4-4-4-4-4-4-----------4-4-4-4-4-4-----------|
A|--0-0-0-0-0-0-----------2-2-2-2-2-2--2h4p2p0--2-2-2-2-2-2--2h4p2p0--2-2-2-2-2-2--2h4p2p0--|
E|--0-0-0-0-0-0---------------------------------2-2-2-2-2-2-----------2-2-2-2-2-2-----------|

e|--------------------------------------------------|
B|--------------------------------------------------|
G|--------------------------------------------------|
D|--11--11--11--12--11------------------------------|
A|--0---0---0---0---0---12--11--11--11--12--11------|
E|--------------------------0---0---0---0---0---12--|

e|----------------------------------------------|
B|----------------------------------------------|
G|--4-4-4-4-4-4-----------4-4-4-4-4-4-----------|
D|--4-4-4-4-4-4-----------4-4-4-4-4-4-----------|
A|--2-2-2-2-2-2--2h4p2p0--2-2-2-2-2-2--2h4p2p0--|
E|--2-2-2-2-2-2-----------2-2-2-2-2-2-----------|

e|--------------------------------------------------|
B|---------------------17---------------------------|
G|--------------------------------------------------|
D|--11--11--11--12--11------------------------------|
A|--0---0---0---0---0-----11--11--11--12--11--------|
E|------------------------0---0---0---0---0---12----|
Comments