Alter Bridge - One Day Remains Chords & Tabs

 

One Day Remains Chords & Tabs

Alter Bridge Chords & Tabs

Version: 1 Type: Tab 0 ratings
1 star 2 stars 3 stars 4 stars 5 stars
comments

One Day Remains Tab

-------------------------------------------------------------------------------
			     One Day Remains Intro
-------------------------------------------------------------------------------
Tabbed by: Nick Whittenburg
Email: Disturbed314@hotmail.com

Tuning: Standard

Awesome Tremonti riff, I got sick of wanting to be able to play it so I sat down
for about an hour and this is what I came up with.


Distortion and some sort of slow wah effect
Straight 16th notes, Tempo = 142


E||----------------------------------|----------------------------------|
B||----------------------------------|----------------------------------|
G||----------------------------------|----------------------------------|
D||----------------------------------|----------------------------------|
A||--0-7-9-0-7-9-0-0-7-6-0-7-6-0-7-6-|--0-6-7-0-6-7-0-0-6-4-0-6-4-0-6-4-|
E||----------------------------------|----------------------------------|

[ Tab from: http://www.guitartabs.cc/tabs/a/alter_bridge/one_day_remains_tab.html ]
                                                                      
|----------------------------------|----------------------------------|
|----------------------------------|----------------------------------|
|----------------------------------|----------------------------------|
|----------------------------------|----------------------------------|
|--2-0-2-6-2-0-2-0-2-6-2-0-2-4-2-0-|--2-0-2-6-2-0-2-0-2-6-2-0-2-4-2-0-|
|----------------------------------|----------------------------------|


                                                                      
|----------------------------------|----------------------------------|
|----------------------------------|----------------------------------|
|----------------------------------|----------------------------------|
|----------------------------------|----------------------------------|
|--0-7-9-0-7-9-0-0-7-6-0-7-6-0-7-6-|--0-6-7-0-6-7-0-0-6-4-0-6-4-0-6-4-|
|----------------------------------|----------------------------------|


                                                                    
|----------------------------------|-------------------------------||
|----------------------------------|-------------------------------||
|----------------------------------|-------------------------------||
|----------------------------------|-------------------------------||
|--2-0-2-6-2-0-2-0-2-6-2-0-2-4-2-0-|--2-0-2-6-2-0-2-0-2-6-2-0-2~---||
|----------------------------------|-------------------------------||
                                                              hold

   The verse is the same riff palm muted the whole way through, after you're on
your own until I or someone else gets out with the rest of it.

~Disturbed314~
Comments