Alter Bridge - In Loving Memory Acoustic Chords & Tabs

 

In Loving Memory Acoustic Chords & Tabs

Alter Bridge Chords & Tabs

Version: 1 Type: Chords 0 ratings
1 star 2 stars 3 stars 4 stars 5 stars
comments

In Loving Memory Acoustic Chords

   
Alter Bridge - In Loving Memory (Acoustic)
Tuning: Tune 1/2 step down to flats (To match the recording)
Tabbed By: Jordan Boesch 
Please rate!

I absolutely love this song, here it is nice and simplified for your acoustic.

Note: The verses and chorus' are seperated by lines as you can see, so repeat the
lyrics with the same chords in the boxed area until you get to the next set of 
lyrics.

Enjoy!

----------------------------------------------------------------------------------

VERSE 1: (G,Em,D,C)

      G                                      Em
eb|-3---3--3---3-----------------------0---0--0--0-0-------------------------------|
Bb|-3---3--3---3-----------------------3---3--3--3-3-------------------------------|
Gb|-2---2--2---2-----2h42--------------0---0--0--0-0-------------------------------|
Db|-0---0--0---0----------4-0----------2---2--2--2-2----2h42-----------------------|
Ab|-0---0--0---0-----------------------2---2--2--2-2--------4-0--------------------|
Eb|-3---3--3---3-----------------------0---0--0--0-0-------------------------------|
    Thanks for all        you've done

       D                                C
eb|-2---2--2---2-----------------------0--0---0--0---0-0---------------------------|
Bb|-3---3--3---3-----------------------3--5---5--5---3-3---------------------------|
Gb|-2---2--2---2-----------------------0--0---0--0---0-0---------------------------|
Db|-0---0--0---0-----------------------2--2---2--2---2-2---------------------------|
Ab|-0---0--0---0-----------------0h2---3--3---3--3---3-3---------------------------|
Eb|-0---0--0---0-----------------------0--0---0--0---0-0---------------------------|
    I've missed you for so long     I can't believe you're gone

You still live in me
I feel you in the wind
You guide me constantly

I've never knew what it was to be alone, no
Cause you were always there for me
You were always home waiting
And now I come home and I miss your face so
Smiling down on me
I close my eyes to see

--------------------------------------------------------------------------------

CHORUS: (G,D,Em,C)

      G                                    D
eb|---3--3-3--3-----------------------2--2--2-2-2-------------------------------|
Bb|---3--3-3--3-----------------------3--3--3-3-3-------------------------------|
Gb|---2--2-2--2-----------------------2--2--2-2-2-------------------------------|
Db|---0--0-0--0-----------------------0--0--0-0-0-------------------------------|
Ab|---0--0-0--0-----------------------0--0--0-0-0-------------------------------|
Eb|---3--3-3--3-----------------------0--0--0-0-0-------------------------------|
And I know, you're a                 part of me

       Em                                C
eb|-0-0-0-0-0------------------------0--0--0-0-0-0-----------------------------|
Bb|-3-3-3-3-3------------------------3--3--3-3-3-3-----------------------------|
Gb|-0-0-0-0-0------------------------0--0--0-0-0-0-----------------------------|
Db|-2-2-2-2-2------------------------2--2--2-2-2-2-----------------------------|
Ab|-2-2-2-2-2------------------------3--3--3-3-3-3-----------------------------|
Eb|-0-0-0-0-0------------------------0--0--0-0-0-0-----------------------------|
And it's your song that              sets me free

I sing it while I feel I can't hold on
I sing tonight cause it comforts me

--------------------------------------------------------------------------------

VERSE 2: (G,Em,D,C)

         G                                 Em
eb|---3--3-3--3-----------------------0-0-0-0-0-0--------------------------------|
Bb|---3--3-3--3-----------------------3-3-3-3-3-3--------------------------------|
Gb|---2--2-2--2-----------------------0-0-0-0-0-0--------------------------------|
Db|---0--0-0--0-----------------------2-2-2-2-2-2--------------------------------|
Ab|---0--0-0--0-----------------------2-2-2-2-2-2--------------------------------|
Eb|---3--3-3--3-----------------------0-0-0-0-0-0--------------------------------|
I carry the things that remind me of you

       D                                C
eb|-2-2-2-2-2-2-------------------------0--0--0-0-0-0----------------------------|
Bb|-3-3-3-3-3-3-------------------------3--3--3-3-3-3----------------------------|
Gb|-2-2-2-2-2-2-------------------------0--0--0-0-0-0----------------------------|
Db|-0-0-0-0-0-0-------------------------2--2--2-2-2-2----------------------------|
Ab|-0-0-0-0-0-0-------------------------3--3--3-3-3-3----------------------------|
Eb|-0-0-0-0-0-0-------------------------0--0--0-0-0-0----------------------------|
In loving memory of              The one that was so true

You were as kind as you could be
And even though you're gone
You still mean the world to me

I've never knew what it was to be alone, no
Cause you were always there for me
You were always home waiting
But now I come home and it's not the same, no
It feels empty and alone
I can't believe you're gone

--------------------------------------------------------------------------------

CHORUS: (G,D,Em,C)
[ Tab from: http://www.guitartabs.cc/tabs/a/alter_bridge/in_loving_memory_acoustic_crd.html ]
      G                                    D
eb|---3--3-3--3-----------------------2--2--2-2-2-------------------------------|
Bb|---3--3-3--3-----------------------3--3--3-3-3-------------------------------|
Gb|---2--2-2--2-----------------------2--2--2-2-2-------------------------------|
Db|---0--0-0--0-----------------------0--0--0-0-0-------------------------------|
Ab|---0--0-0--0-----------------------0--0--0-0-0-------------------------------|
Eb|---3--3-3--3-----------------------0--0--0-0-0-------------------------------|
And I know, you're a                 part of me

       Em                                C
eb|-0-0-0-0-0------------------------0--0--0-0-0-0-----------------------------|
Bb|-3-3-3-3-3------------------------3--3--3-3-3-3-----------------------------|
Gb|-0-0-0-0-0------------------------0--0--0-0-0-0-----------------------------|
Db|-2-2-2-2-2------------------------2--2--2-2-2-2-----------------------------|
Ab|-2-2-2-2-2------------------------3--3--3-3-3-3-----------------------------|
Eb|-0-0-0-0-0------------------------0--0--0-0-0-0-----------------------------|
And it's your song that              sets me free

I sing it while I feel I can't hold on
I sing tonight cause it comforts me

--------------------------------------------------------------------------------

Bridge: (D,C,G,D,C,C,D,G)

       D              C                  G
eb|-2-2-2-2-2----0-0-0-0-0-0-0--------3-3-3-3-3-3-----------------------------|
Bb|-3-3-3-3-3----3-3-3-3-3-3-3--------3-3-3-3-3-3-----------------------------|
Gb|-2-2-2-2-2----0-0-0-0-0-0-0--------2-2-2-2-2-2-----------------------------|
Db|-0-0-0-0-0----2-2-2-2-2-2-2--------0-0-0-0-0-0-----------------------------|
Ab|-0-0-0-0-0----3-3-3-3-3-3-3--------0-0-0-0-0-0-----------------------------|
Eb|-0-0-0-0-0----0-0-0-0-0-0-0--------3-3-3-3-3-3-----------------------------|
I'm glad he     set you free from      sorrow

        D            C
eb|-2-2-2-2-2-----------0-0-0-0-0-0-----------------------------|
Bb|-3-3-3-3-3-----------3-3-3-3-3-3-----------------------------|
Gb|-2-2-2-2-2-----------0-0-0-0-0-0-----------------------------|
Db|-0-0-0-0-0-----------2-2-2-2-2-2-----------------------------|
Ab|-0-0-0-0-0-----------3-3-3-3-3-3-----------------------------|
Eb|-0-0-0-0-0-----------0-0-0-0-0-0-----------------------------|
I'll still love you more tomorrow

        C              D                  G
eb|-0-0-0-0-0---------2-2-2-2-2-2-2--------3-3-3-3-3-3-----------------------------|
Bb|-3-3-3-3-3---------3-3-3-3-3-3-3--------3-3-3-3-3-3-----------------------------|
Gb|-0-0-0-0-0---------2-2-2-2-2-2-2--------2-2-2-2-2-2-----------------------------|
Db|-2-2-2-2-2---------0-0-0-0-0-0-0--------0-0-0-0-0-0-----------------------------|
Ab|-3-3-3-3-3---------0-0-0-0-0-0-0--------0-0-0-0-0-0-----------------------------|
Eb|-0-0-0-0-0---------0-0-0-0-0-0-0--------3-3-3-3-3-3-----------------------------|
And you will be       here with me          still

All you did you did with feeling
And You always found the meaning
And you always will

-----------------------------------------------------------------------------------

        C              D                  G
eb|-0-0-0-0-0---------2-2-2-2-2-2-2--------3-3-3-3-3-3-----------------------------|
Bb|-3-3-3-3-3---------3-3-3-3-3-3-3--------3-3-3-3-3-3-----------------------------|
Gb|-0-0-0-0-0---------0-0-0-0-0-0-0--------2-2-2-2-2-2-----------------------------|
Db|-2-2-2-2-2---------0-0-0-0-0-0-0--------0-0-0-0-0-0-----------------------------|
Ab|-3-3-3-3-3---------0-0-0-0-0-0-0--------0-0-0-0-0-0-----------------------------|
Eb|-0-0-0-0-0---------0-0-0-0-0-0-0--------3-3-3-3-3-3-----------------------------|
And you               always               will

                D#5   D                         C          G    Em   D     C              
eb|-------------x-----2-2-2-2-2-2-2--------0-0-0-0-0-0-----3-3--0-0--2-2--0-0------|
Bb|-------------x-----3-3-3-3-3-3-3--------3-3-3-3-3-3-----3-3--3-3--3-3--3-3-------|
Gb|-------------8-----2-2-2-2-2-2-2--------0-0-0-0-0-0-----2-2--0-0--2-2--0-0-------|
Db|-------------8-----0-0-0-0-0-0-0--------2-2-2-2-2-2-----0-0--2-2--0-0--2-2-------|
Ab|-------------6-----0-0-0-0-0-0-0--------3-3-3-3-3-3-----0-0--2-2--0-0--3-3-------|
Eb|-------------6-----0-0-0-0-0-0-0--------0-0-0-0-0-0-----3-3--0-0--0-0--0-0-------|

And you always will                 Ooo ooo oooooooooooo oooooo ooooooooooooooooooooo
REPEAT G, Em, D, C throughout Myles going OooOoooOo
------------------------------------------------------------------------------------

CHORUS: (G,D,Em,C)

      G                                    D
eb|---3--3-3--3-----------------------2--2--2-2-2-------------------------------|
Bb|---3--3-3--3-----------------------3--3--3-3-3-------------------------------|
Gb|---2--2-2--2-----------------------2--2--2-2-2-------------------------------|
Db|---0--0-0--0-----------------------0--0--0-0-0-------------------------------|
Ab|---0--0-0--0-----------------------0--0--0-0-0-------------------------------|
Eb|---3--3-3--3-----------------------0--0--0-0-0-------------------------------|
And I know, you're a                 part of me

       Em                                C
eb|-0-0-0-0-0------------------------0--0--0-0-0-0-----------------------------|
Bb|-3-3-3-3-3------------------------3--3--3-3-3-3-----------------------------|
Gb|-0-0-0-0-0------------------------0--0--0-0-0-0-----------------------------|
Db|-2-2-2-2-2------------------------2--2--2-2-2-2-----------------------------|
Ab|-2-2-2-2-2------------------------3--3--3-3-3-3-----------------------------|
Eb|-0-0-0-0-0------------------------0--0--0-0-0-0-----------------------------|
And it's your song that              sets me free

I sing it while I feel I can't hold on
I sing tonight cause it comforts me
Comments