Alter Bridge - Find The Real Chords & Tabs

 

Find The Real Chords & Tabs

Alter Bridge Chords & Tabs

Version: 2 Type: Tab 0 ratings
1 star 2 stars 3 stars 4 stars 5 stars
comments

Find The Real Tab

   
Alter Bridge
"Find The Real"

This song is one of the best.
Its dropped one half step down from D
Listen to the CD for the strumming patterns.

Eb
Bb
Gb
Db
Ab
Db

Here is the intro.

Riff A

Eb-----------------------------------------------------------------------------------------------------
Bb-----------------------------------------------------------------------------------------------------
Gb-----------------------------------------------------------------------------------------------------
Db---------------------------------------------------------------------------------------------0---4--
Ab-------------5---4---3---0--------------------------3-------------------------3---0---3-----------
Db----0---0---------------------6---6---5---0---3--------3---3---5---3---5------------------------

Riff B
[ Tab from: http://www.guitartabs.cc/tabs/a/alter_bridge/find_the_real_tab_ver_2.html ]
Eb-----------------------------------------------------------------------------------------------------
Bb-----------------------------------------------------------------------------------------------------
Gb-----------------------------------------------------------------------------------------------------
Db--------------------------------------------------------------------------------2---0---2---0---1--
Ab-------------5---4---3---0--------------------------3-------------------------2---0---2---0---1--
Db----0---0---------------------6---6---5---0---3--------3---3---5---3---5---2---0---2---0---1--


After playing Riff's A and B once each, you are going to repeat riff A twice, and then go 
into the chorus.


Chorus

Eb----------------------------------------------------------------------------------------
Bb---------------------------------------------------------------------------------------
Gb----3---3---3---3------------------------5----5----5----5---------------------------
Db----3---3---3---3---3----3----3----3---5----5----5----5----5---5---5---5---------
Ab----1---1---1---1---3----3----3----3---3----3----3----3----5---5---5---5---------
Db---------------------3----3----3----3-------------------------5---5---5---5---------

Eb----------------------------------------------------------------------------------------
Bb----------------------------------------------------------------------------------------
Gb----------------------------------------------------------------------------------------
Db---0---0----7---6---5---3---0--------------------------------------------------------
Ab---0---0----7---6---5---3---0--------------------------------------------------------
Db---0---0----7---6---5---3---0--------------------------------------------------------

It repeats the chorus twice, then goes back to riff A twice more.
After the solo, it plays the chorus 4 more times, then riff a & b once more.
Comments