Alter Bridge - Burn It Down Chords & Tabs

 

Burn It Down Chords & Tabs

Alter Bridge Chords & Tabs

Version: 3 Type: Tab 0 ratings
1 star 2 stars 3 stars 4 stars 5 stars
comments

Burn It Down Tab

Alter Bridge - Burn It Down
Tabber:  Jonathan Rafaiani (IamJonsCranium)

***I forgot to change the first chord in the chorus in my last tab

I'm not sure if Tremonti uses an alternative tuning for this song, and I'm
really not sure if the 3rd chord of the chorus is correct, but I tabbed this
in standard tuning and it sounds good to me.  This is my first tab, and I have
no idea how you guys get everything to line up right (give me a tip in the
comment section?).  The strumming pattern and chord changes are easy enough to
figure out, so I didn't include that in my tab.  I also only included some of
the main picking riffs throughout the song (but not the final solo), none of the
little stuff in between.  Maybe I will finish it sometime later.  Thanks Royce
for the solo help.  Brenna is a cutie.

Intro/verse:
I drank so much...
0------0------0------0------0--------------0--------------|
4------3------3------0------0--------------0--------------|
4------4------x------0------3--------------3--------------|
x------x------3------5------4--------------4--------------|
2------2------0------5------4--------------4--------------|
x------x------x------3------2-----0-23-----2---0-23-------|
[ Tab from: http://www.guitartabs.cc/tabs/a/alter_bridge/burn_it_down_tab_ver_3.html ]
chorus
so burn it down...
0------0------0------0------|----------------------------|
2------0------0------0------|----------------------------|
4------2------6------6------|---------5----57/9---------|
4------2------7------7------|---5 h7----7--------10------|
2------0------4------7------|----------------------------|
0------x------0------5------|----------------------------|

bridge 
whatever takes us away...       remember to find a new way... 
0------0------0------0--------x---3-------x---5---4----|
0------0------2h3----2h3------x---3-------x---5---4----|
2------0------2------2--------5---5-------7---7---6----|
x------5------2------2--------5---5-------7---7---6----|
2------5------0------2--------3---3-------5---5---4----|
0------3------0------2--------3---3-------5---5---4----|

carry ooooooooooooooooon
-------5-----5------3----3----3--------|
-------5-----5------3----3----3--------|
-------6h7---6------4----5----4--------|
-------7-----7------5----5----5--------|
-------7-----7------5----3----5--------|
-------5-----5------3----3----3--------|

outro chorus (different than 1st chorus)
so burn it down...
5-----3----3--------|
5-----3----3--------|
6-----5----4--------|
7-----5----5--------|
7-----3----5--------|
5-----3----3--------|

FINISHED (2:06am, do tabs ever get written in sunlight?)
Comments