Alter Bridge - Broken Wings Chords & Tabs

 

Broken Wings Chords & Tabs

Alter Bridge Chords & Tabs

Version: 4 Type: Tab 0 ratings
1 star 2 stars 3 stars 4 stars 5 stars
comments

Broken Wings Tab

   
This may be played on a 7 string or maybe not.  Ive never seen Mark play with a 7
string.  Here it is on a 6 string.  The tuning is just a little different.

Tuning: (low to high) Bb Ab Db gb Bb eb

Intro/Outro
------------------------------------------------10p0---------|
----10~--------------------0~---0----------------------------|
-----9/10\9\7-------7----6---6h7--7--------------------------|
--------------9~--------------------7----9-------------------|
-----------------7/9--9--0~----------------10-------10-------|
-0~------------------------------------0-8----8~-------8-----|

---------------------------9p0--------------------------10-9-7-(7)-|
-10/12-10h12p10-------------------------------------------------7--|
----------------12----------------10/11-10h11p10-7-----------------|
---------------------6---------------------------------------------|
-----------------------8------8------------------------------------|
-------------------0-7---7~-----7--------------------0~------------|

------------------------------------------10p0-------------------------|
------------0~-------------------------------------10/12-10h12p10------|
-----7----6---------7--7-9b11-7-----------------------------------12---|
---------------0h7h9--9------------9-----------------------------------|
--7/9--9--0~-------------------------10-------10-----------------------|
---------------------------------0-8----8~-------8---------------------|

-------------9p0-------------|
-----------------------------|
--------------------10/11----|
-------6---------------------|
---------8------8------------|
-----0-7---7~-----7----------|

Verse
-------------------------------------------------------------|
-------------------------------------------------------------|
--------0-------------0--------------0--------------0--------|
---5------5------5------5-------5------5-------5------5------|
-----4------4------4------4-------4------4-------4------4----|
--3----3------3-5----5------5-0-----0------0-0-----0------0--|

---------------------------------------------------------------|
----------------------------------------------------0----------|
--------0-------------0--------------0----------------0--------|
---5------5------5------5-------5------5-------5--------5------|
-----4------4------4------4-------4------4-------4--------4----|
--3----3------3-5----5------5-0-----0------0-0-----0-----------|

REPEAT 2X
[ Tab from: http://www.guitartabs.cc/tabs/a/alter_bridge/broken_wings_tab_ver_4.html ]
PRE-CHORUS
---------0------------0----------------------------------|
----------0------------0---------------------------------|
-----------0------------0---------0-------------0--------|
----11------11----9------9---5------5------5------5------|
--12---12-------10--10---------4------4------4------4----|
----------------------------0----0------0-0----0------0--|

---------0------------0----------------------------------|
----------0------------0---------------------------------|
-----------0------------0---------0-------------0--------|
----11------11----9------9---5------5------5------5------|
--12---12-------10--10---------4------4------4------4----|
----------------------------0----0------0-0----0------0--|

---------0------------0-----0~----|
----------0------------0----0~----|
-----------0------------0---0~----|
----11------11----9------9--9~----|
--12---12-------10--10------9~----|
----------------------------------|

Chorus
----------------------------------------------------|
-3-------------0------------------------------------|
-2-------------6------------4-----------------------|
-0-------------7------------4--------------9--------|
-0-------------4------------2--------------10-------|
(3)----------------------------------------8--------|

----------------------------------------------------|
-3-------------0------------------------------------|
-2-------7/9---6------------4-----------------------|
-0-------x-x---7------------4--------------9--------|
-0-------5/7---4------------2--------------10-------|
(3)----------------------------------------8--------|

Repeat Verse
Repeat Pre-Chorus
Repeat Chorus

Interlude
--------------------------------------------------|
--------------------------------------------------|
---------------12b14------------------------------|
--9b10r9----11--------9---------------------------|
--------10--12--------10--------------------------|
------------10--------8----0-12-0-14-0-15-0-17-0--|

--------------------------------------------------|
--------------------------------------------------|
-----12b14----------------------------------------|
--11--------9-------------------------------------|
--12--------10------------------------------------|
--10--------8----0-12-0-0-0-0-12-0-0-0-0-12-0-0-0-|

--------------------------------------------------|
--------------------------------------------------|
-----12b14----------------------------------------|
--11--------9-------------------------------------|
--12--------10----------7-9-10-9-7h9/10\9p7\5-----|
--10--------8----0-12-0-----------------------0---|

------------------------------------------|
------------------------------------------|
-----12b14--------------------------------|
--11--------9----11-11-11-11-11-11-11-11--|
--12--------10---9--9--9--9--9--9--9--9---|
--10--------8-----------------------------|

Chorus
Outro
Comments