Alter Bridge - Broken Wings Chords & Tabs

 

Broken Wings Chords & Tabs

Alter Bridge Chords & Tabs

Version: 1 Type: Tab 2 ratings
1 star 2 stars 3 stars 4 stars 5 stars
comments

Broken Wings Tab

Alter Bridge 
Broken Wings

Tuning - (A#G#C#F#A#D#) 
Dropped D tuned down one half step with the bottom string tuned down to A#

 

INTRO:

 

D#|-----------------------|---------------------|---------------------|

A#|-----------10----------|------------------0--|-----------0---------|

F#|-----------9b----7-----|---------------7-----|--6------------------|

C#|--------------------9~-|---------------------|---------------------|

G#|-----------------------|------------/9-------|--0---------------0--|

A#|--0--------------------|---------------------|---------------------|

 

 

                                                     

-----------------------|--------------10h-0---------|

--------0--------------|------------------------10--|

--6h-7-----7-----------|----------------------------|

----------------7------|--9-------------------------|

-----------------------|-------10-------------------|

-----------------------|--8--------8---------8------|

 

 

                                                                                

-----------------------------|-------------9h-0--------|-----------------------|

--10/12-----12p10------------|-------------------------|-----------------------|

------------------12~--------|----------------------9--|--9/11----11p9/7~------|

-----------------------------|--8----------------------|-----------------------|

-----------------------------|-------9-----------------|-----------------------|

--------------------------0--|--7-------7--------7-----|-----------------------|

 

 

                                                                      

-----------10--9--7-----|---------------------|----------------------|

---------------------7--|------------------0--|-----------0----------|

------------------------|---------------7-----|--6-------------------|

------------------------|---------------------|------------------7h9-|

------------------------|------------/9-------|--0---------------0---|

--0---------------------|---------------------|----------------------|

 

 

                                                       

-------------------------|--------------10h-0---------|

-------------------------|------------------------10--|

--7-----7--9/11--7~------|----------------------------|

-----9-------------------|--9-------------------------|

-------------------------|-------10-------------------|

----------------------0--|--8--------8---------8------|

 

 

                                                                             

-----------------------------|-------------9h-0--------|--------------------|

--10-12-----12h10------------|-------------------------|--------------------|

------------------12~--------|----------------------9--|--9/11~-------------|

-----------------------------|--8----------------------|--------------------|

-----------------------------|-------9-----------------|--------------------|

--------------------------0--|--7-------7--------7-----|--------------------|

 

 

                                                        

 
[ Tab from: http://www.guitartabs.cc/tabs/a/alter_bridge/broken_wings_tab.html ]
 

VERSE Part I: 

      

The first part of the verses are simply the first two 

lines with "ENDING #2" alternating in every so often.

 

|---------------------------|--------------------------|

|---------------------------|--------------------------|

|*--------------0-----------|--------------0-----------|

|*-----4-----------4-----4--|-----4-----------4-----4--|

|---------5-----------5-----|--------5-----------5-----|

|---3--------3--------------|--5--------5--------------|

 

 

                                         ENDING #1                      

--------------------------|---------------------------||

--------------------------|---------------------------||

--------------0-----------|--------------0-----------*||

-----4-----------4-----4--|-----4-----------4-----4--*||

--------5-----------5-----|--------5-----------5------||

--0--------0--------------|--0--------0---------------||

 

 

              ENDING #2                                          

--------------------------|

--------------0-----------|

-----------------0--------|

-----4--------------4-----|

--------5--------------5--|

--0--------0--------------|

 

 

VERSE Part II:

 

As the second part of the verse begins, immediately 

following "ENDING #2," the following three lines are played

and repeated as indicated until the beginning of the chorus. 

                                                      

                                                     

|-------------------0------------|---------------0-----------|

|----------------------0---------|------------------0--------|

|*------------------------0------|---------------------0-----|

|*------11-------------------11--|-----9------------------9-|

|-----------12-------------------|--------10-----------------|

|---10----------10---------------|--8---------8--------------|

 

 

                                                        

--------------------------|---------------------------||

--------------------------|---------------------------||

--------------0-----------|--------------0-----------*||

-----4-----------4-----4--|-----4-----------4-----4--*||

--------5-----------5-----|--------5-----------5------||

--0--------0--------------|--0--------0---------------||

 

 

                                                                                

------------------0------------|---------------0-----------|--0----------------||

---------------------0---------|------------------0--------|--0----------------||

------------------------0------|---------------------0-----|--0----------------||

------11-------------------11--|-----9-----------------(9)-|--8----------------||

----------12-------------------|--------10-----------------|--9----------------||

--10----------10---------------|--8---------



Chorus

----------------------------------------

----------------------------------------

-----7-----6-----4-------12-------------

-----7-----7-----4-------12------------

-----5-----4-----2-------10------------

---------------------------------------
Comments