Alpha Blondy - Ya Fohi Chords & Tabs

 

Ya Fohi Chords & Tabs

Alpha Blondy Chords & Tabs

Version: 1 Type: Bass Tab 0 ratings
1 star 2 stars 3 stars 4 stars 5 stars
comments

Ya Fohi Bass Tab

Artist: Alpha Blondy
Title: Ya Fohi
Album: Grand Bassam Zion Rock
Tabbed By: Björn Nilsson

Intro:
G:-----|------|-----|-----|
D:-----|------|-----|-----|
A:-----|------|-----|-----|
E:-----|-3B---|-3B--|-----|

Main riff: (Played several times)
G:-----------------------------------|
D:-----------------------------------|
A:-2---------------------------------|
E:------------2------5--5-----2~-----|

G:-----------------------------------|
D:-----------------------------------|    
A:-2-2-2-2-2-------------------------|
E:------------2------5--5-----2~-----|
[ Tab from: http://www.guitartabs.cc/tabs/a/alpha_blondy/ya_fohi_btab.html ]
The main riff is played with several variations throughout the song. 
Towards the end, when the beat changes (it does a couple of times), this is
played with some variations:

G:-----------------------|
D:-----------------------|
A:-----------------------|
E:-7--7--7----5--5--5----|


Bridge: (at approximately 1:44)
G:----------------|--------------------------------|
D:-9----9---11~---|--12----12-----14~-14-14-12-11--|
A:----9-----------|------12------------------------|
E:----------------|--------------------------------|

G:-----------------|-------------------------------|
D:-----------------|------12~--------14~--14~------|
A:-14---14----12~--|-------------------------------|
E:----14-----------|-------------------------------|

For corrections & comments, please mail yode@nintendo-on.net
Comments