Allman Brothers Band - Les Brers In A Minor Chords & Tabs

 

Les Brers In A Minor Chords & Tabs

Allman Brothers Band Chords & Tabs

Version: 1 Type: Tab 0 ratings
1 star 2 stars 3 stars 4 stars 5 stars
comments

Les Brers In A Minor Tab

   
Harris C.
GA, the birth place of the Allmans’ and myself
The real “Les Brers in A minor”

e|---5--7--8—7---8--10--8--7--5------------------------------| 
B|-5-------------------------------5-------------------------| 
G|-----------------------------------------------------------| 
D|-----------------------------------------------------------| 
A|-----------------------------------------------------------| 
E|-----------------------------------------------------------| 

e|---5--7--8--7--10---10/15--13--12--12--13------------------| 
B|-5---------------------------------------------------------| 
G|-----------------------------------------------------------| 
D|-----------------------------------------------------------| 
A|-----------------------------------------------------------| 
E|-----------------------------------------------------------| 
[ Tab from: http://www.guitartabs.cc/tabs/a/allman_brothers_band/les_brers_in_a_minor_tab.html ]
e|-15--17--17--15--15--12--12--10--10--8--8------------------| 
B|-----------------------------------------------------------| 
G|-----------------------------------------------------------| 
D|-----------------------------------------------------------| 
A|-----------------------------------------------------------| 
E|-----------------------------------------------------------| 

e|-7--7--5--5-5--3--5/7--7--8--0--5/7--5---------------------| 
B|-----------------------------------------------------------| 
G|-----------------------------------------------------------| 
D|-----------------------------------------------------------| 
A|-----------------------------------------------------------| 
E|-----------------------------------------------------------|

Bass Tab

G|-----------------------------------------------------------| 
D|-----------------------------------------------------------| 
A|--0--5--0--0--3--3--2--0--2--------------------------------| 
E|-----------------------------------------------------------|
Comments