Allman Brothers Band - Firing Line Chords & Tabs

 

Firing Line Chords & Tabs

Allman Brothers Band Chords & Tabs

Version: 1 Type: Tab 0 ratings
1 star 2 stars 3 stars 4 stars 5 stars
comments

Firing Line Tab

   
Title: Firing Line
Artist: Allman Brothers Band

Standard tuning: EADGBe

Key:
hammer on-h
pulloff-p
bend-b

Intro
e:|-------------------------------------------------------------|
b:|---8b--5------5---3p0----------------------------------------|
g:|----------7b-----------2b3--2p0--0h2p0-----------------------|
d:|--------------------------------------2--0h2p0---------------|
a:|-------------------------------------------------------------|
E:|------------------------------------------------3---0--------|

[ Tab from: http://www.guitartabs.cc/tabs/a/allman_brothers_band/firing_line_tab.html ]
e:|-------------------------------------------------------------|
b:|---8b--5------5---3p0----------------------------------------|
g:|----------7b-----------2b3--2p0--0-2-------------------------|
d:|------------------------------------0-2----------------------|
a:|---------------------------------------0-2-----2-------------|
E:|------------------------------------------0-3--0-------------|
Play 2 times then go into verse.





If I messed it up fix it.
Questions or corrections e-mail me xxlouxdogxx@yahoo
This is a great song and it would be awsome if someone
who can actually do this shit right would finish it and
e-mail me.


HI BUTT!!
Comments