Allister - Westbound Chords & Tabs

 

Westbound Chords & Tabs

Allister Chords & Tabs

Version: 2 Type: Tab 0 ratings
1 star 2 stars 3 stars 4 stars 5 stars
comments

Westbound Tab

-------------------------------------------------------------------------------
			     Westbound - Allister
-------------------------------------------------------------------------------

Tabbed by: Brian
Email: guitar_freak7@msn.com

Tuning:Standard

Intro

Guitar 1 (Strum this octave chord really fast)
e|------------------|
B|------------------|
G|--10--------------|
D|--x---------------|
A|--8---------------|
E|------------------|


Guitar 2 (Come in at 0:06 and strum this octave fast)
e|------------------|
B|------------------|
G|--14--------------|
D|--x---------------|
A|--12--------------|
E|------------------|


Verse

Guitar 1 and Guitar 2 (Listen to the recording for the strumming pattern)
e|------------------| X4
B|------------------|
G|------7---5-------|
D|--3---7---5-------|
A|--3---5---3-------|
E|--1---------------|


Pre-Chorus

Guitar 1 and Guitar 2 (Listen to the recording for the strumming pattern)
e|------------------------------|
B|------------------------------|
G|--3---5---7---5---3---5-------|
D|--3---5---7---5---3---5-short-|
A|--1---3---5---3---1---3-------|
E|------------------------------|

Chorus

Guitar 1 and Guitar 2 (Listen to the recording for the strumming pattern)
e|------------------------| X4
B|------------------------| 
G|------3---7---5---------|
D|--3---3---7---5---------|
A|--3---1---5---3---------|
E|--1---------------------|

After the chorus
[ Tab from: http://www.guitartabs.cc/tabs/a/allister/westbound_tab_ver_2.html ]
Guitar 1 and Guitar 2
e|-----------------|
B|-----------------|
G|-----------------|
D|--3--------------|
A|--3--Let-Ring----|
E|--1--------------|


Verse 
Pre-Chorus 
Chorus

(On the 4th time of playing the chorus play this)

Guitar 1 and Guitar 2 (Lister to the recording for the stumming Pattern)
e|----------------------------|
B|----------------------------|
G|------3---7---3---3---3-----|
D|--3---3---7---3---3---3-----|
A|--3---1---5---5---1---5-----|
E|--1-------------------------|



Guitar Solo


Guitar 1 plays the chorus


Guitar 2      X2
e|--------------------------------------8------------------------------------| 
B|--10--8--------------------10--8--10---------------------------------------|
G|---------10-10-10--7--10---------------------------------------------------|
D|---------------------------------------------------------------------------|
A|---------------------------------------------------------------------------|
E|---------------------------------------------------------------------------|

e|-------------8-------------8-----------8------8------8------8--------------|
B|--10--8----------10--8----------8--8h10--8h10---8h10---8h10---10h8-10p8----|
G|---------10-------------10----------------------------------------------10-|
D|---------------------------------------------------------------------------|
A|---------------------------------------------------------------------------|
E|---------------------------------------------------------------------------|


Chorus (Palm Muted)

Chorus

Guitar 1 and Guitar 2
e|-------|
B|-------|
G|-------|
D|--3----|
A|--3----|
E|--1----|
Comments