Allister - Somewhere On Fullerton Chords & Tabs

 

Somewhere On Fullerton Chords & Tabs

Allister Chords & Tabs

Version: 2 Type: Tab 0 ratings
1 star 2 stars 3 stars 4 stars 5 stars
comments

Somewhere On Fullerton Tab

   
--------------------------------------------------------------------------------
                          Allister- Somewhere On Fullerton
--------------------------------------------------------------------------------
Artist: Allister
Song: Somewhere On Fullerton
Off The Albulm: Last Stop Surburbia.
Tabbed by: Fat Kids on mopeds
Corrected and modified by: Zero is great man
Tunning: Standard (Right): EADGBe

Intro:
"Somewhere down in fullerton, there's a place we used to go..."
e|----------------------------------------------------|
B|----------------------------------------------------|
G|-8-8--x--8-8-------------------------8-8------------|
D|-8-8--x--8-8--8-8--6-6-6-6--8-8-8-8--8-8--8-8-6-6-8-|
A|-6-6--x--6-6--8-8--6-6-6-6--8-8-8-8--6-6--8-8-6-6-8-|
E|--------------6-6--4-4-4-4--6-6-6-6-------6-6-4-4-6-|
  |---------------p.m--------------------------------|


Pre-Chorus: "But I'm still trying to figure out why..."
e|------------------------------------------------------------------------|
B|------------------------------------------------------------------------|
G|-8-8-8-8-8-8-8-8-----------5-5-----------8-8-8-8-8-8-8-8----------------|
D|-8-8-8-8-8-8-8-8--8-8-8-8--5-5--5-5-5-5--8-8-8-8-8-8-8-8--8-8-8-8-8-8-8-|
A|-6-6-6-6-6-6-6-6--8-8-8-8--3-5--5-5-5-5--6-6-6-6-6-6-6-6--8-8-8-8-8-8-8-|
E|------------------6-6-6-6-------3-3-3-3-------------------6-6-6-6-6-6-6-|
[ Tab from: http://www.guitartabs.cc/tabs/a/allister/somewhere_on_fullerton_tab_ver_2.html ]
Chorus: 
"So please don't go away..."
e|------------------------------------------------------------------------|
B|------------------------------------------------------------------------|
G|-8-8-8-8-8-8-8-8-8------------------------------------------------------|
D|-8-8-8-8-8-8-8-8-8--8-8-8-8-8-8-8-8-8--5-5-5-5-5-5-5-5--6-6-6-6-6-6-6-6-|(x2)
A|-6-6-6-6-6-6-6-6-6--8-8-8-8-8-8-8-8-8--5-5-5-5-5-5-5-5--6-6-6-6-6-6-6-6-|
E|--------------------6-6-6-6-6-6-6-6-6--3-3-3-3-3-3-3-3--4-4-4-4-4-4-4-4-|

Verse:
e|------------------------------------|
B|------------------------------------|
G|-8-8-8-8----------------------------|(x2)
D|-8-8-8-8--8-8-8-8--6-6-6-6--8-8-8-8-|
A|-6-6-6-6--8-8-8-8--6-6-6-6--8-8-8-8-|
E|----------6-6-6-6--4-4-4-4--6-6-6-6-|
  |------------p.m.------------------|

Guitar 2: (Repeatedly During second verse w/choppy rhythem) 
e|------------------------------------|
B|------------------------------------|
G|-8----------------------------------|
D|-x----------------------------------|
A|-6----------------------------------|
E|------------------------------------|

Bridge
e|-------------------------------------|
B|-------------------------------------|
G|-8-8-8------8------8-----10/12/10----|
D|-8-8-x--8-8-x--6-6-x-10--x-/-x/-x--8-|
A|-6-6-6--8-8-6--6-6-6-10--8-/10/-8--8-|
E|--------6-6----4-4----8------------6-|

Solo:(Guitar 1 plays Verse)
e|-6---6-4-3-4-6---6-4-3-4-8-6---6-4-3-------3-1-----|
B|---4-----------4-------------4-------4---4-----4---|
G|---------------------------------------5---------5-|
D|---------------------------------------------------|
A|---------------------------------------------------|
E|---------------------------------------------------|


End on:
e|---|
B|---|
G|-8-|
D|-8-|
A|-6-|
E|---|

================================================================================
Comments