Allister - Somewhere On Fullerton Chords & Tabs

 

Somewhere On Fullerton Chords & Tabs

Allister Chords & Tabs

Version: 2 Type: Bass Tab 0 ratings
1 star 2 stars 3 stars 4 stars 5 stars
comments

Somewhere On Fullerton Bass Tab

Verse 1
G:---------------------------------|
D:---------------------------------|
A:-66------------------------------|x2
E:---------------------------------|

Pre Chorus
G:------------------------------------------------------------------|
D:-----------------------------------------------------886655-------|
A:------------------66-8-6-5---------------------------------88-----|x1
E:-4444444466666666----------8-8-6--3-44444444466666666-------------|

Chorus
G:------------------------------------------------------------------|
D:------------------------------------------------------------------|
A:-6666666666666666----------------3333333333333333-----------------|x2
E:-----------------6666666666666666----------------4444444444444444-|

Verse 2
G:------------------------------------------------------------------|
D:------------------------------------------------------------------|
A:-66666666------------------------66666666-------------------------|x1
E:---------666666664444444466666666--------66666666444444446--------|

Pre Chorus
G:------------------------------------------------------------------|
D:-----------------------------------------------------886655-------|
A:------------------66-8-6-5---------------------------------88-----|x1
E:-4444444466666666----------8-8-6--3-44444444466666666-------------|
[ Tab from: http://www.guitartabs.cc/tabs/a/allister/somewhere_on_fullerton_btab_ver_2.html ]
Chorus
G:------------------------------------------------------------------|
D:------------------------------------------------------------------|
A:-6666666666666666----------------3333333333333333-----------------|x2
E:-----------------6666666666666666----------------4444444444444444-|

Bridge
G:----------------------------------|
D:----------------------------------|
A:-66----------------------33--11---|x2
E:---------66------44---------------|

G:----------------------------------|
D:----------------------------------|
A:-66666666----------------333-111--|x2
E:---------6666666644444444---------|

Pre Chorus
G:------------------------------------------------------------------|
D:-----------------------------------------------------886655-------|
A:------------------66-8-6-5---------------------------------88-----|x1
E:-4444444466666666----------8-8-6--3-44444444466666666-------------|

Chorus/Outro
G:------------------------------------------------------------------|
D:------------------------------------------------------------------|
A:-6666666666666666----------------3333333333333333-----------------|x3
E:-----------------6666666666666666----------------4444444444444444-|

G:--------------------------------------------------------------------|
D:--------------------------------------------------------------------|
A:-6666666666666666----------------3333333333333333----------------6~-|x1
E:-----------------6666666666666666----------------4444444466666666---|
Comments