Allister - Somewhere On Fullerton Chords & Tabs

 

Somewhere On Fullerton Chords & Tabs

Allister Chords & Tabs

Version: 1 Type: Bass Tab 0 ratings
1 star 2 stars 3 stars 4 stars 5 stars
comments

Somewhere On Fullerton Bass Tab

   
-------------------------------------------------------------------------------
			Somewhere on fullerton - Allister
-------------------------------------------------------------------------------
Tabbed By : ZeroisZero
Tuning:EADG

(Guitar plays intro/Verse 1)

Pre-chorus:"But I'm still trying to figure out why..."
G|-----------------------------------------------------------------------|
D|-----------------------------------------------------------------------|
A|-------------------6-6-6-6---------------------------------------------|
E|-4-4-4-4--6-6-6-6-----------6-6-6-6--4-4-4-4-4-4-4-4--6-6-4-4-3-3--1-1-|
[ Tab from: http://www.guitartabs.cc/tabs/a/allister/somewhere_on_fullerton_btab.html ]
Chorus: "So please don't go away, I hope this feeling stays with me..."
G|--------------------------------------------------------------------|
D|--------------------------------------------------------------------|
A|-6-6-6-6-6-6-6-6----------------------------------------------------|
E|------------------6-6-6-6-6-6-6-6--3-3-3-3-3-3-3-3--4-4-4-4-4-4-4-4-|

Verse 2: "Somewhere down on fullerton..."
G|-----------------------------------------------------------------|
D|-----------------------------------------------------------------|
A|-6-6-6-6-----------------------------6-6-6-6---------------------|
E|----------6-6-6-6--4-4-4-4--6-6-6-6-----------6-6-6-6--4-4-4-4-6-|

[Pre-chorus]

[Chorus]

Bridge/Guitar solo:
G|--------------------------------------------------------|
D|--------------------------------------------------------|
A|-6-6-6-----------------------6-6-6----------------------| x2
E|--------6-6-6--4-4-4--6-6-6---------6-6-6--4-4-4--6-6-6-|

[Pre-chorus]

[Chorus]

Outro/end on:
G|----|
D|----|
A|-6~-|
E|----|


| /  slide up
| \  slide down
| h  hammer-on
| p  pull-off
| ~  vibrato
| +  harmonic
| x  Mute note
===============================================================================
Comments