Allister - Scratch Chords & Tabs

 

Scratch Chords & Tabs

Allister Chords & Tabs

Version: 2 Type: Tab 0 ratings
1 star 2 stars 3 stars 4 stars 5 stars
comments

Scratch Tab

Allister - Scratch
By:Andrew Mcshan(Guitarguyx182@aol.com)

Intro
(Guitar 1)
e|--------------------------------------------------------------|
B|--7-7-7-6-7-7-7-7-6-7-7-7-7--6-7-7-7-6--7---------------------|
G|--------------------------------------------------------------|
D|--------------------------------------------------------------|
A|--------------------------------------------------------------|
E|--------------------------------------------------------------|
(Guitar 2)
e|--------------------------------------------------------------|
B|--------------------------------------------------------------|
G|----------4------8-------6------------------------------------|
D|-4--------4------8-------6------------------------------------|
A|-4--------2------6-------4------------------------------------|
E|-2------------------------------------------------------------|
[ Tab from: http://www.guitartabs.cc/tabs/a/allister/scratch_tab_ver_2.html ]
Verse
e|--------------------------------------------------------------|
B|--------------------------------------------------------------|
G|----------6-----4----6--------------4--6-------6/4-4--6-------|
D|--4-------6-----4----6-------x2-----4--6----4--6/4-4--6-------|
A|--4-------4-----2----4--------------2--4----4--4/2-2--4-------|
E|--2-----------------------------------------2-----------------|

Chorus
e|--------------------------------------------------------------|
B|--------------------------------------------------------------|
G|--------4-----8-------6---------------------------------------|
D|-4------4-----8-------6---------------------------------------|
A|-4------2-----6-------4---------------------------------------|
E|-2------------------------------------------------------------|

Bridge
e|--------------------------------------------------------------|
B|--------------------------------------------------------------|
G|-4--8/6--4--8/6--4-6--8--11-----------------------------------|
D|-4--8/6--4--8/6--x-x--x--x------------------------------------|
A|-2--6/4--2--6/4--2-4--6--9------------------------------------|
E|--------------------------------------------------------------|

After Bridge
e|--------------------------------------------------------------|
B|--------------------------------------------------------------|
G|-8-----4------8----6--------4------------6--------------------|
D|-8-----4------8----6----x2--4------------6--------------------|
A|-6-----2------6----4--------2------------4--------------------|
E|--------------------------------------------------------------|
                                Pm............................
Comments