Allister - Residential Burglary Chords & Tabs

 

Residential Burglary Chords & Tabs

Allister Chords & Tabs

Version: 1 Type: Tab 0 ratings
1 star 2 stars 3 stars 4 stars 5 stars
comments

Residential Burglary Tab

Allister - Residential Burglary
By:Andrew Mcshan(Guitarguyx182@belg88.com
[ Tab from: http://www.guitartabs.cc/tabs/a/allister/residential_burglary_tab.html ]
Intro
(Guitar 1)
e|-------------------------------|
B|-7-7-7-6-7-7-7-6-7-7-7-4/2-----|
G|----------------------------x4-|
D|-------------------------------|
A|-------------------------------|
E|-------------------------------|
(Guitar 2)
e|-------------------------------|
B|-------------------------------|
G|--------8-----4---6------------|
D|--4-----8-----4---6------------|
A|--4-----6-----2---4------------|
E|--2----------------------------|
Verse
e|-----------------------------------------------|
B|-----------------------------------------------|
G|-------4-----6-----------4----6--------4---6---|
D|--4----4-----6------4----4----6----4---4---6---|
A|--4----2-----4------4----2----4----4---2---4---|
E|--2-----------------2--------------2-----------|

e|------------------------------------------------------|
B|------------------------------------------------------|
G|--4----------6-----------4----------------------------|
D|--4------4---6----4------4---4------------------------|
A|--2------4---4----4------2---4-----4-4-4-4/3-4-4-4/3--|
E|---------2--------2----------2------------------------|
Chorus
e|------------------------------------------------------|
B|------------------------------------------------------|
G|--------8-----4---6-----------------------------------|
D|--4-----8-----4---6-----------------------------------|
A|--4-----6-----2---4-----------------------------------|
E|--2---------------------------------------------------|
Comments