Allister - Radio Player Chords & Tabs

 

Radio Player Chords & Tabs

Allister Chords & Tabs

Version: 2 Type: Tab 0 ratings
1 star 2 stars 3 stars 4 stars 5 stars
comments

Radio Player Tab

Song: Radio Player
Band: Allister
Album: Last Stop Suburbia
This is a really good song from a really cool band.
It didnít have a tab that was completely correct, so I posted one.  Please rate it!

*=palm mute	h=hammer on	p=pull off

Intro 1
|---------------------------|
|-4h5p4(Repeat for a while)-|
|---------------------------|
|---------------------------|
|---------------------------|
|---------------------------|

Intro 2 x2
|---------------------------------------------------------------------|
|---------------------------------------------------------------------|
|-4444444444444444----------------------------------------------------|
|-4444444444444444-4444444444444444-2222222222222222-4444444444444444-|
|-2222222222222222-4444444444444444-2222222222222222-4444444444444444-|
|------------------2222222222222222-0000000000000000-2222222222222222-|

Verse x4
|---------------------|
|---------------------|
|-44-4-44-4-----------|
|-44-4-44-4-22-2-44-4-|
|-22-2-22-2-22-2-44-4-|
|-----------00-0-22-2-|
  **   **   **   ** 

Pre-chorus part 1 x3
|-------------------|
|-------------------|
|----------44444444-|
|-22222222-44444444-|
|-22222222-22222222-|
|-00000000----------|

Pre-chorus part 2 1x
|--------------------|
|--------------------|
|--------------------|
|-4444444444444444---|
|-4444444444444444---|
|-2222222222222222---|

Chorus x4
|-----------------|
|-----------------|
|-444-------------|
|-444-666-222-444-|
|-222-666-222-444-|
|-----444-000-222-|
[ Tab from: http://www.guitartabs.cc/tabs/a/allister/radio_player_tab_ver_2.html ]
Intro 2 x1
|---------------------------------------------------------------------|
|---------------------------------------------------------------------|
|-4444444444444444----------------------------------------------------|
|-4444444444444444-4444444444444444-2222222222222222-4444444444444444-|
|-2222222222222222-4444444444444444-2222222222222222-4444444444444444-|
|------------------2222222222222222-0000000000000000-2222222222222222-|

Verse x4
|---------------------|
|---------------------|
|-44-4-44-4-----------|
|-44-4-44-4-22-2-44-4-|
|-22-2-22-2-22-2-44-4-|
|-----------00-0-22-2-|
  **   **   **   **

Pre-chorus part 1 x3
|-------------------|
|-------------------|
|----------44444444-|
|-22222222-44444444-|
|-22222222-22222222-|
|-00000000----------|

Pre-chorus part 2 1x
|--------------------|
|--------------------|
|--------------------|
|-4444444444444444---|
|-4444444444444444---|
|-2222222222222222---|

Chorus x8
|-----------------|
|-----------------|
|-444-------------|
|-444-666-222-444-|
|-222-666-222-444-|
|-----444-000-222-|

Bridge x2
|------------------------------------|
|------------------------------------|
|------------------------------------|
|-66666666-44444444-2222222222222222-|
|-66666666-44444444-2222222222222222-|
|-44444444-22222222-0000000000000000-|

Interlude (clean)
|------------------------------------------|
|------------------------------------------|
|-----4------------------------------------|
|---4---4-(Repeat this pattern for a while)|
|-2----------------------------------------|
|------------------------------------------|
Chorus x8
|-----------------|
|-----------------|
|-444-------------|
|-444-666-222-444-|
|-222-666-222-444-|
|-----444-000-222-|

Ending x1
|----------------|
|----------------|
|-44----------44-|
|-44-66-22-44-44-|
|-22-66-22-44-22-|
|----44-00-22----|
Comments