Allister - Moper Chords & Tabs

 

Moper Chords & Tabs

Allister Chords & Tabs

Version: 1 Type: Tab 0 ratings
1 star 2 stars 3 stars 4 stars 5 stars
comments

Moper Tab

   
Allister - Moper
Tabbed By: Kevin K
EMail: kickin570@hotmail.com


Intro
E---------------------------------------------------------------------------------------
B---------------------------------------10-9-7------------------------------------------
G-6h7h8-8-8-8-6h7h8-8-8-8-6h7h8-8-8-8-6--------6h7h8-8-8-8-6h7h8-8-8-8-2---4h6h7-7-7-6-4
D----------------------------------------------------------------------------------------
A----------------------------------------------------------------------------------------
E----------------------------------------------------------------------------------------

[ Tab from: http://www.guitartabs.cc/tabs/a/allister/moper_tab.html ]
Intro (second guitar) (Its also later the Chorus, only each chord doesn't ring, 
it follows a pattern similar to that of the verse)
E-----------------
B-----------------
G-2-----------9---
D-2---4---2---9---
A-0---4---2---7---
E-----2---0-------

Verse
E------------------------------------B------------------------------------
G-22222222-------------------99999999
D-22222222-44444444-22222222-99999999
A-00000000-44444444-22222222-77777777
E----------22222222-00000000---------

Pre Chorus
E--------------------------------B--------------------------------
G-99999999-77777777-99999999-7---D-99999999-77777777-99999999-7---
A-77777777-55555555-77777777-5---E--------------------------------

Then the Chorus is the second guitar in the intro repeated 4 times
 
The Bridge is just power chords yet again, so ill put the notes

B B C# D D D D D A A D E E E E E

Then Back to the chorus
Comments