Allister - Jimmys Dream Girl Chords & Tabs

 

Jimmys Dream Girl Chords & Tabs

Allister Chords & Tabs

Version: 1 Type: Bass Tab 0 ratings
1 star 2 stars 3 stars 4 stars 5 stars
comments

Jimmys Dream Girl Bass Tab

Standard Tuning
[ Tab from: http://www.guitartabs.cc/tabs/a/allister/jimmys_dream_girl_btab.html ]
intro x2
G|-----------------------------------------------------------|
D|----------------------------------8>----6-----8------------|
A|----6>----------------------6>-----------------------------|
E|----------6>----4>----6>-----------------------------------|
 
verse & chorus
G|------------------|  |-----------------------------|
D|------------------|  |-----------------------------|
A|--6>--------------|  |--6x------6------------------|
E|------6>--4>--6>--|  |------6x----6-4---4>---6>----|
 
G|----------5------------------------10-8-7-8-7-5------------|
D|------5-8---8-5-6-8-6-5--------5-8--------------8-6-5------|
A|----6-------------------8-5--6-----------------------------|
E|-----------------------------------------------------------|
 
G|----------5------------------------10-8-7-8>-10>-----------|
D|------5-8---8-5-6-8-6-5--------5-8-------------------------|
A|----6-------------------8-5--6-----------------------------|
E|-----------------------------------------------------------|
 
Outro
G|----------------------------------------------------8>-----|
D|-----------------------------------------------8>----------|
A|---6>------66---------6>--------6>--------6>---------------|
E|-------6>-----66-44--------6>--------6>--------------------|
Comments