Allister - I Want It That Way Chords & Tabs

 

I Want It That Way Chords & Tabs

Allister Chords & Tabs

Version: 1 Type: Bass Tab 0 ratings
1 star 2 stars 3 stars 4 stars 5 stars
comments

I Want It That Way Bass Tab

Standard Tuning

Verse 1(bass enters at 0:23)
G:----|---------------------7-----------|
D:----|-------------------7-------------|
A:----|-----------------5---------------| x4
E:-9/-|-2-2-2-2-2-2-2-2-------5-5-5-5-5-|

Chorus 1
G:---------------------------------|
D:---------------------------------|
A:-5-5-5-5-5-5-5-5-----------------| x3
E:-----------------0-0-0-2-2-2-2-2-|

G:---------------------------------|
D:---------------------------------|
A:-----------------2-2-2-0-0-0-0-0-| x1
E:-2-2-2-2-2-2-2-2-----------------|

Verse 2
G:---------------------7-----------|
D:-------------------7-------------|
A:-----------------5---------------| x4
E:-2-2-2-2-2-2-2-2-------5-5-5-5-5-|

Chorus 2
G:---------------------------------|
D:---------------------------------|
A:-5-5-5-5-5-5-5-5-----------------| x3
E:-----------------0-0-0-2-2-2-2-2-|

G:---------------------------------|
D:---------------------------------|
A:-----------------2-2-2-4-4-4-4-4-| x1
E:-2-2-2-2-2-2-2-2-----------------|

Bridge
G:-----------------------------------------------------------------|
D:-------------------------------------------------------2-2-2-2-2-|
A:---------------------------------5-5-5-5-5-5-5-5-2-2-2-----------| x1
E:-2-2-2-2-2-2-2-2-0-0-0-0-0-0-0-0---------------------------------|
[ Tab from: http://www.guitartabs.cc/tabs/a/allister/i_want_it_that_way_btab.html ]
G:-----------------------------------------------------------------|
D:-----------------------------------------------------------------|
A:---------------------------------5-5-5-5-5-5-5-5-7-7-7-7-7-7-7-7-| x1
E:-2-2-2-2-2-2-2-2-0-0-0-0-0-0-0-0---------------------------------|

Chorus 3
G:---------------------------------|
D:---------------------------------|
A:-5~~~----------------------------| x2
E:-----------------0~~~--2~~~------|

G:---------------------------------|
D:---------------------------------|
A:-5~~~----------------------------| x1
E:-----------------0~~~--5~~~------|

G:---------------------------------|---> 
D:---------------------------------|---> 
A:-------------4~~~--2~~~----------|x1-> 
E:-2~~~--5~~~----------------------|--->

Chorus 4
G:---------------------------------|
D:---------------------------------|
A:-7-7-7-7-7-7-7-7-----------------| x3
E:-----------------2-2-2-4-4-4-4-4-|

G:---------------------------------|
D:---------------------------------|
A:-----------------4-4-4-2-2-2-2-2-| x1
E:---------4-4-4-4-----------------|

G:---------------------------------|
D:---------------------------------|
A:-7-7-7-7-7-7-7-7-----------------| x3
E:-----------------2-2-2-4-4-4-4-4-|

G:---------------------------------|
D:---------------------------------|
A:-----------------4~~~--2~~~------| x2
E:-4~~~----------------------------|
Comments