Allister - Friday Night Chords & Tabs

 

Friday Night Chords & Tabs

Allister Chords & Tabs

Version: 1 Type: Tab 0 ratings
1 star 2 stars 3 stars 4 stars 5 stars
comments

Friday Night Tab

Allister - Friday Night
By:Andrew Mcshan(Guitarguyx182@aol.com)

Verse
e|--------------------------------------------------------------------------|
B|--------------------------------------------------------------------------|
G|-7---------4---------------7-----4-----------7--4-------------------------|
D|-7---------4---------5-----7-----4----5------7--4---5----7-7-7------------|
A|-5---------2---------5-----5-----2----5------5--2---5----7-7-7------------|
E|---------------------3----------------3-------------3----5-5-5------------|
[ Tab from: http://www.guitartabs.cc/tabs/a/allister/friday_night_tab.html ]
Pre Chorus
e|--------------------------------------------------------------------------|
B|--------------------------------------------------------------------------|
G|-7------------7--------------7-------------7------------------------------|
D|-7---7----5---7----7---5-----7-7----5------7--7--5---7-7-7----------------|
A|-5---7----5---5----7---5-----5-7----5------5--7--5---7-7-7----------------|
E|-----5----3--------5---3-------5----3---------5--3---5-5-5----------------|

Chorus
(Guitar 1)
e|--------------------------------------------------------------------------|
B|--------------------------------------------------------------------------|
G|--7-----------------------------------------------------------------------|
D|--7------7---5---7--------------------------------------------------------|
A|--5------7---5---7--------------------------------------------------------|
E|---------5---3---5--------------------------------------------------------|
(Guitar 2)
e|--------------------------------------------------------------------------|
B|--------------------------------------------------------------------------|
G|-7-7-7-7-7-7-9-9-9-9-9-7-7-7-7-12-11-7-9----------------------------------|
D|-x-x-x-x-x-x-x-x-x-x-x-x-x-x-x-x--x--x-x----------------------------------|
A|-5-5-5-5-5-5-7-7-7-7-7-5-5-5-5-10-9--5-7----------------------------------|
E|--------------------------------------------------------------------------|
Comments