Allister - Friday Night Chords & Tabs

 

Friday Night Chords & Tabs

Allister Chords & Tabs

Version: 1 Type: Bass Tab 0 ratings
1 star 2 stars 3 stars 4 stars 5 stars
comments

Friday Night Bass Tab

Standard Tuning

Intro
G---------------------------------------|
D---------------------------------------|
A-5----------5----------5---------------|
E----2--3-------2--3-------2--3--5------|

G-------------------------------------------|
D-------------------------------------------|
A-5----------5----------5----------5--------|
E----5--3-------5--3-------5--3-------5--3--|

Chorus
G---------------------------------------|
D---------------------------------------|
A-5-------------------5-----------------|
E------5----3----5---------5----3----7--|

Intro
G---------------------------------------|
D---------------------------------------|
A-5----------5----------5---------------|
E----2--3-------2--3-------2--3----5----|
[ Tab from: http://www.guitartabs.cc/tabs/a/allister/friday_night_btab.html ]
G----------------------------------------|
D----------------------------------------|
A5---------5---------5-----------5-------|
E---5--3------5--3------5--3--------5--3-|

Chorus
G---------------------------------------|
D---------------------------------------|
A-5-------------------5-----------------|
E------5----3----5---------5----3----5--|

Intro
G---------------------------------------|
D---------------------------------------|
A-5--2-------5----------5---------------|
E-------3-------2--3-------2--3----5----|

Chorus
G---------------------------------------|
D---------------------------------------|
A-5-------------------5-----------------|
E------5----3----5---------5----3----5--|

Thanks, please rate it after you learn it.
Comments