Allister - Fraggle Rawk Chords & Tabs

 

Fraggle Rawk Chords & Tabs

Allister Chords & Tabs

Version: 2 Type: Bass Tab 0 ratings
1 star 2 stars 3 stars 4 stars 5 stars
comments

Fraggle Rawk Bass Tab

Allister - Fraggle Rawk
Submitted By: Rendered U$eless Bassist -  (Justin Bolton)
EMail: c1rca411@hotmail.com


H= Hamer-On, for those who didnt know this, take your bass and smash it over you heads

Intro
G|-------------------------------------------------------------------|
D|-------------------------------------------------------------------|
A|-3-3-3-1H2---------------------------------------------------------| x4
E|-------------------------------------------------------------------|

Chorus
G|-------------------------------------------------------------------|
D|---------33333333--------------------------------------------------|
A|-33333333--------55555555------------------------------------------|
E|-------------------------3-3-3-------------------------------------|

**Note**
There is an emphasis patern o the eighth notes. On every first note, emphasise.

Verse (dance your cares away...)
G|-------------------------------------------------------------------|
D|-------------------------------------------------------------------|
A|-33------3333------------------------------------------------------|
E|---1-3333----------------------------------------------------------|

Bridge
G|-------------------------------------------------------------------|
D|-------------------------------------------------------------------|
A|-33333333----------------33333333----------------------------------|
E|---------1111111133333333------------------------------------------|

If you Have any questions or comments, please feel glad to email me( Justin) 
at c1rca411@hotmail.com

Allister is a good band, my band used to cover this song all the time!
===========
FRAGGLE RAWK - Allister		

By: Robert Madden: pileofwaste@yahoo.com
[ Tab from: http://www.guitartabs.cc/tabs/a/allister/fraggle_rawk_btab_ver_2.html ]
INTRO: (bass only)
G|---------------------------------------------------------------------------|
D|---------------------------------------------------------------------------|
A|---3-3-3-1h2---3-3-3-1h2---3-3-3-1h2---3-3-3-1h2---------------------------|
E|---------------------------------------------------------------------------|

INTRO: (bass notes under guitar)
G|---------------------------------------------------------------------------|
D|---------------------------------------------------------------------------|
A|---3-3-3-3-(X2)-8-8-8-8-(X2)-5-5-5-5-(X2)----------------------------------|
E|------------------------------------------3-3-3-3-3------------------------|

1st VERSE:
G|---------------------------------------------------------------------------|
D|---------------------------------------------------------------------------|
A|---3-3-1---------------3-3-3-3-(X4)----------------------------------------|
E|-----------3-3---1-1-------------------------------------------------------|

INTRO

2nd VERSE:
G|---------------------------------------------------------------------------|
D|---------------------------------------------------------------------------|
A|---3-3-1---------------3-3-3-3-(X3)-3-3-1----------------------------------|
E|-----------3-3---1-1------------------------3-(ring out)-------------------|
                                             "We're Johnnie" etc

INTRO

3rd VERSE: ("PUNK RAWK!!!")
G|---------------------------------------------------------------------------|
D|---------------------------------------------------------------------------|
A|---3-3-3-3-------------------------3-3-3-3-(X3)----------------------------|
E|-------------1-1-1-1---3-3---1-1-------------------------------------------|

G|---------------------------------------------------------------------------|
D|---------------------------------------------------------------------------|
A|---3-3-3-3---------------------3-----------3-------3-----------------------|
E|-------------1-1-1-1---3---1-------3---1-------3---------------------------|

This bass tab is correct! E-mail me if there's bits you don't understand!
Comments