Allister - Camouflage Chords & Tabs

 

Camouflage Chords & Tabs

Allister Chords & Tabs

Version: 2 Type: Tab 0 ratings
1 star 2 stars 3 stars 4 stars 5 stars
comments

Camouflage Tab

   
Song: Camouflage
Band: Allister
Album: Last Stop Suburbia
Tabbed by: Dan M.
Tuning: Standard

  Verse(listen for strumming pattern)
E|---777-7---222-00---777-7---222-00-|
B|---777-7---222-00---777-7---222-00-|
G|---888-8---333-11---888-8---333-11-|
D|-9999999944444222-9999999944444222
A|-9999999944444222-9999999944444222
E|-7777777722222000-7777777722222000

--44--22--0---0-----44--22--0-----------|
--44--22--0----0----44--22--0-----------|
--44--33--1-----1---44--33--1-----------|    (Repeat with distortion)
--66--44--2------2--66--44--2--22222222-|
--66--44--2---------66--44--2--22222222-|
--44--22--0---------44--22--0--00000000-|

   Chorus
|-7777222200000000-7777222200000000
|-7777222200000000-7777222200000000
|-8888333311111111-8888333311111111
|-9999444422222222-9999444422222222
|-9999444422222222-9999444422222222
|-7777222200000000-7777222200000000

--7777222200000000-4444444400002222-|
--7777222200000000-4444444400002222-|
--8888333311111111-4444444411113333-|
--9999444422222222-6666666622224444-|
--9999444422222222-6666666622224444-|
--7777222200000000-4444444400002222-|
[ Tab from: http://www.guitartabs.cc/tabs/a/allister/camouflage_tab_ver_2.html ]
Bridge1(guitar 1)
|-------------------------------------------------|
|-------------------------------------------------|
|-------------------------------------------------|
|--9999999999444444444422222222222266666644444444-| X2
|--9999999999444444444422222222222266666644444444-|
|--7777777777222222222200000000000044444422222222-|

Bridge1(guitar 2)
|--14--------14--------14--------------11-9-------|
|----12-11-12--12-11-12--12-11-12----12-----12-11-|
|----------------------------------13-------------|
|-------------------------------------------------| X2
|-------------------------------------------------|
|-------------------------------------------------|

Verse
Chorus

Bridge2(guitar 1)
|------------------------------|
|------------------------------|
|------------------------------|
|-6666666222444466666622244444-| X2
|-6666666222444466666622244444-|
|-4444444000222244444400022222-|

Bridge2(guitar2)
|-9-11----------9-11--14-12-11-|
|-----12-11-12------12---------|
|-------------11---------------|
|------------------------------|
|------------------------------| X2
|------------------------------|

Verse(back to all acoustic like intro)

Notes: Well, this is pretty much the best song by Allister that i've heard, so enjoy, 
fun with it, and i hope this helps with a jam session or two!
Comments