Allister - Camouflage Chords & Tabs

 

Camouflage Chords & Tabs

Allister Chords & Tabs

Version: 1 Type: Tab 0 ratings
1 star 2 stars 3 stars 4 stars 5 stars
comments

Camouflage Tab

Allister - Camouflage
By:Andrew Mcshan (Guitarguyx182@aol.com)
[ Tab from: http://www.guitartabs.cc/tabs/a/allister/camouflage_tab.html ]
Intro/Verse
e|---------------------------------------------------------------------------|
B|---------------------------4-----------------------------------------------|
G|---6-4---6-4/6--8-6-4-----4--4----8-6-4--4/6/8/9---------------------------|
D|-9-6-4-9-6-4/6--8-6-4---4-----4---8-6-4--4/6/8/9---------------------------|
A|-9-4-2-9-4-2/4--6-4-2-2---------2-6-4-2--2/4/6/7---------------------------|
E|-7-----7-------------------------------------------------------------------|
Chorus
e|---------------------------------------------------------------------------|
B|---------------------------------------------------------------------------|
G|---6-----6-----------------------------------------------------------------|
D|-9-6-2-9-6-2---6--7--9-----------------------------------------------------|
A|-9-4-2-9-4-2---6--7--9-----------------------------------------------------|
E|-7---0-7---0---4--5--7-----------------------------------------------------|
                 Pm.................
Little Riff Thingy
e|-14----------14---------------11-9-7-6-------------------------------------|
B|----12-11-12----12-11-12-9-12----------------------------------------------|
G|---------------------------------------------------------------------------|
D|---------------------------------------------------------------------------|
A|---------------------------------------------------------------------------|
E|---------------------------------------------------------------------------|
Verse

Chorus

Second Little Solo
e|-----11-------6-6/7--------------------------------------------------------|
B|--14----12----------7------------------------------------------------------|
G|----------------------------------------4-~~~------------------------------|
D|----------------------------------------X-~~~------------------------------|
A|----------------------------------------2-~~~------------------------------|
E|---------------------------------------------------------------------------|

Verse Again
Comments